  0
SECTION
  2
HEADER
  9
$ACADVER
  1
AC1014
  9
$ACADMAINTVER
 70
     9
  9
$DWGCODEPAGE
  3
ANSI_1252
  9
$INSBASE
 10
0.0
 20
0.0
 30
0.0
  9
$EXTMIN
 10
0.0
 20
0.0
 30
0.0
  9
$EXTMAX
 10
11.0
 20
8.5
 30
0.0
  9
$LIMMIN
 10
0.0
 20
0.0
  9
$LIMMAX
 10
11.0
 20
8.5
  9
$ORTHOMODE
 70
     0
  9
$REGENMODE
 70
     1
  9
$FILLMODE
 70
     1
  9
$QTEXTMODE
 70
     0
  9
$MIRRTEXT
 70
     1
  9
$DRAGMODE
 70
     2
  9
$LTSCALE
 40
1.0
  9
$OSMODE
 70
    37
  9
$ATTMODE
 70
     1
  9
$TEXTSIZE
 40
0.1666666667
  9
$TRACEWID
 40
0.05
  9
$TEXTSTYLE
  7
STANDARD
  9
$CLAYER
  8
0
  9
$CELTYPE
  6
BYLAYER
  9
$CECOLOR
 62
   256
  9
$CELTSCALE
 40
1.0
  9
$DELOBJ
 70
     1
  9
$DISPSILH
 70
     0
  9
$DIMSCALE
 40
1.0
  9
$DIMASZ
 40
0.09
  9
$DIMEXO
 40
0.05
  9
$DIMDLI
 40
0.38
  9
$DIMRND
 40
0.0
  9
$DIMDLE
 40
0.0
  9
$DIMEXE
 40
0.0625
  9
$DIMTP
 40
0.0
  9
$DIMTM
 40
0.0
  9
$DIMTXT
 40
0.1666666667
  9
$DIMCEN
 40
0.09
  9
$DIMTSZ
 40
0.0
  9
$DIMTOL
 70
     0
  9
$DIMLIM
 70
     0
  9
$DIMTIH
 70
     1
  9
$DIMTOH
 70
     1
  9
$DIMSE1
 70
     0
  9
$DIMSE2
 70
     0
  9
$DIMTAD
 70
     0
  9
$DIMZIN
 70
     0
  9
$DIMBLK
  1

  9
$DIMASO
 70
     1
  9
$DIMSHO
 70
     1
  9
$DIMPOST
  1

  9
$DIMAPOST
  1

  9
$DIMALT
 70
     0
  9
$DIMALTD
 70
     2
  9
$DIMALTF
 40
25.4
  9
$DIMLFAC
 40
1.0
  9
$DIMTOFL
 70
     0
  9
$DIMTVP
 40
0.0
  9
$DIMTIX
 70
     0
  9
$DIMSOXD
 70
     0
  9
$DIMSAH
 70
     0
  9
$DIMBLK1
  1

  9
$DIMBLK2
  1

  9
$DIMSTYLE
  2
STANDARD
  9
$DIMCLRD
 70
     0
  9
$DIMCLRE
 70
     0
  9
$DIMCLRT
 70
     0
  9
$DIMTFAC
 40
1.0
  9
$DIMGAP
 40
0.06
  9
$DIMJUST
 70
     0
  9
$DIMSD1
 70
     0
  9
$DIMSD2
 70
     0
  9
$DIMTOLJ
 70
     1
  9
$DIMTZIN
 70
     0
  9
$DIMALTZ
 70
     0
  9
$DIMALTTZ
 70
     0
  9
$DIMFIT
 70
     3
  9
$DIMUPT
 70
     0
  9
$DIMUNIT
 70
     2
  9
$DIMDEC
 70
     4
  9
$DIMTDEC
 70
     4
  9
$DIMALTU
 70
     2
  9
$DIMALTTD
 70
     2
  9
$DIMTXSTY
  7
STANDARD
  9
$DIMAUNIT
 70
     0
  9
$LUNITS
 70
     2
  9
$LUPREC
 70
     3
  9
$SKETCHINC
 40
0.1
  9
$FILLETRAD
 40
0.5
  9
$AUNITS
 70
     0
  9
$AUPREC
 70
     0
  9
$MENU
  1
.
  9
$ELEVATION
 40
0.0
  9
$PELEVATION
 40
0.0
  9
$THICKNESS
 40
0.0
  9
$LIMCHECK
 70
     0
  9
$CHAMFERA
 40
0.5
  9
$CHAMFERB
 40
0.5
  9
$CHAMFERC
 40
1.0
  9
$CHAMFERD
 40
0.0
  9
$SKPOLY
 70
     0
  9
$TDCREATE
 40
2454918.582067153
  9
$TDUPDATE
 40
2454918.582067164
  9
$TDINDWG
 40
0.0000000116
  9
$TDUSRTIMER
 40
0.0000000116
  9
$USRTIMER
 70
     1
  9
$ANGBASE
 50
0.0
  9
$ANGDIR
 70
     0
  9
$PDMODE
 70
     0
  9
$PDSIZE
 40
-1.0
  9
$PLINEWID
 40
0.0
  9
$COORDS
 70
     1
  9
$SPLFRAME
 70
     0
  9
$SPLINETYPE
 70
     6
  9
$SPLINESEGS
 70
     8
  9
$ATTDIA
 70
     0
  9
$ATTREQ
 70
     1
  9
$HANDLING
 70
     1
  9
$HANDSEED
  5
2A3
  9
$SURFTAB1
 70
     6
  9
$SURFTAB2
 70
     6
  9
$SURFTYPE
 70
     6
  9
$SURFU
 70
     6
  9
$SURFV
 70
     6
  9
$UCSNAME
  2

  9
$UCSORG
 10
0.0
 20
0.0
 30
0.0
  9
$UCSXDIR
 10
1.0
 20
0.0
 30
0.0
  9
$UCSYDIR
 10
0.0
 20
1.0
 30
0.0
  9
$PUCSNAME
  2

  9
$PUCSORG
 10
0.0
 20
0.0
 30
0.0
  9
$PUCSXDIR
 10
1.0
 20
0.0
 30
0.0
  9
$PUCSYDIR
 10
0.0
 20
1.0
 30
0.0
  9
$USERI1
 70
     0
  9
$USERI2
 70
     0
  9
$USERI3
 70
     0
  9
$USERI4
 70
     0
  9
$USERI5
 70
     0
  9
$USERR1
 40
0.0
  9
$USERR2
 40
0.0
  9
$USERR3
 40
0.0
  9
$USERR4
 40
0.0
  9
$USERR5
 40
0.0
  9
$WORLDVIEW
 70
     1
  9
$SHADEDGE
 70
     3
  9
$SHADEDIF
 70
    70
  9
$TILEMODE
 70
     1
  9
$MAXACTVP
 70
    64
  9
$PINSBASE
 10
0.0
 20
0.0
 30
0.0
  9
$PLIMCHECK
 70
     0
  9
$PEXTMIN
 10
1.0000000000E+20
 20
1.0000000000E+20
 30
1.0000000000E+20
  9
$PEXTMAX
 10
-1.0000000000E+20
 20
-1.0000000000E+20
 30
-1.0000000000E+20
  9
$PLIMMIN
 10
0.0
 20
0.0
  9
$PLIMMAX
 10
12.0
 20
9.0
  9
$UNITMODE
 70
     0
  9
$VISRETAIN
 70
     1
  9
$PLINEGEN
 70
     0
  9
$PSLTSCALE
 70
     1
  9
$TREEDEPTH
 70
  3020
  9
$PICKSTYLE
 70
     1
  9
$CMLSTYLE
  2
STANDARD
  9
$CMLJUST
 70
     0
  9
$CMLSCALE
 40
1.0
  9
$PROXYGRAPHICS
 70
     1
  9
$MEASUREMENT
 70
     0
  0
ENDSEC
  0
SECTION
  2
CLASSES
  0
CLASS
  1
ACDBDICTIONARYWDFLT
  2
AcDbDictionaryWithDefault
  3
ObjectDBX Classes
 90
        0
280
     0
281
     0
  0
CLASS
  1
VISUALSTYLE
  2
AcDbVisualStyle
  3
ObjectDBX Classes
 90
     4095
280
     0
281
     0
  0
CLASS
  1
SCALE
  2
AcDbScale
  3
ObjectDBX Classes
 90
     1153
280
     0
281
     0
  0
CLASS
  1
DICTIONARYVAR
  2
AcDbDictionaryVar
  3
ObjectDBX Classes
 90
        0
280
     0
281
     0
  0
CLASS
  1
XRECORD
  2
AcDbXrecord
  3
AutoCAD 2000
 90
        0
280
     0
281
     0
  0
CLASS
  1
LWPOLYLINE
  2
AcDbPolyline
  3
AutoCAD 2000
 90
        0
280
     0
281
     1
  0
CLASS
  1
HATCH
  2
AcDbHatch
  3
AutoCAD 2000
 90
        0
280
     0
281
     1
  0
CLASS
  1
ACDBPLACEHOLDER
  2
AcDbPlaceHolder
  3
ObjectDBX Classes
 90
        0
280
     0
281
     0
  0
CLASS
  1
LAYOUT
  2
AcDbLayout
  3
ObjectDBX Classes
 90
        0
280
     0
281
     0
  0
ENDSEC
  0
SECTION
  2
TABLES
  0
TABLE
  2
VPORT
  5
8
330
0
100
AcDbSymbolTable
 70
     1
  0
VPORT
  5
29
330
8
100
AcDbSymbolTableRecord
100
AcDbViewportTableRecord
  2
*ACTIVE
 70
     0
 10
0.0
 20
0.0
 11
1.0
 21
1.0
 12
5.5
 22
4.25
 13
0.0
 23
0.0
 14
0.5
 24
0.5
 15
0.5
 25
0.5
 16
0.0
 26
0.0
 36
1.0
 17
0.0
 27
0.0
 37
0.0
 40
8.5
 41
1.2941176471
 42
50.0
 43
0.0
 44
0.0
 50
0.0
 51
0.0
 71
     0
 72
  2000
 73
     1
 74
     3
 75
     0
 76
     0
 77
     0
 78
     0
  0
ENDTAB
  0
TABLE
  2
LTYPE
  5
5
330
0
100
AcDbSymbolTable
 70
     6
  0
LTYPE
  5
14
330
5
100
AcDbSymbolTableRecord
100
AcDbLinetypeTableRecord
  2
BYBLOCK
 70
     0
  3

 72
    65
 73
     0
 40
0.0
  0
LTYPE
  5
15
330
5
100
AcDbSymbolTableRecord
100
AcDbLinetypeTableRecord
  2
BYLAYER
 70
     0
  3

 72
    65
 73
     0
 40
0.0
  0
LTYPE
  5
16
330
5
100
AcDbSymbolTableRecord
100
AcDbLinetypeTableRecord
  2
CONTINUOUS
 70
     0
  3
Solid line
 72
    65
 73
     0
 40
0.0
  0
LTYPE
  5
5D
330
5
100
AcDbSymbolTableRecord
100
AcDbLinetypeTableRecord
  2
HIDDEN
 70
     0
  3
Hidden __ __ __ __ __ __ __ __ __ __ __ __ __ __
 72
    65
 73
     2
 40
0.075
 49
0.05
 74
     0
 49
-0.025
 74
     0
  0
LTYPE
  5
5E
330
5
100
AcDbSymbolTableRecord
100
AcDbLinetypeTableRecord
  2
PHANTOM
 70
     0
  3
Phantom ______  __  __  ______  __  __  ______
 72
    65
 73
     6
 40
0.5
 49
0.25
 74
     0
 49
-0.05
 74
     0
 49
0.05
 74
     0
 49
-0.05
 74
     0
 49
0.05
 74
     0
 49
-0.05
 74
     0
  0
LTYPE
  5
5F
330
5
100
AcDbSymbolTableRecord
100
AcDbLinetypeTableRecord
  2
CENTER
 70
     0
  3
Center ____ _ ____ _ ____ _ ____ _ ____ _ ____
 72
    65
 73
     4
 40
0.4
 49
0.25
 74
     0
 49
-0.05
 74
     0
 49
0.05
 74
     0
 49
-0.05
 74
     0
  0
LTYPE
  5
60
330
5
100
AcDbSymbolTableRecord
100
AcDbLinetypeTableRecord
  2
CENTERX2
 70
     0
  3
Center (2x) ________  __  ________  __  _____
 72
    65
 73
     4
 40
0.8
 49
0.5
 74
     0
 49
-0.1
 74
     0
 49
0.1
 74
     0
 49
-0.1
 74
     0
  0
LTYPE
  5
61
330
5
100
AcDbSymbolTableRecord
100
AcDbLinetypeTableRecord
  2
DOT2
 70
     0
  3
Dot (.5x) ........................................
 72
    65
 73
     2
 40
0.025
 49
0.0
 74
     0
 49
-0.025
 74
     0
  0
ENDTAB
  0
TABLE
  2
LAYER
  5
2
330
0
100
AcDbSymbolTable
 70
     3
  0
LAYER
  5
10
330
2
100
AcDbSymbolTableRecord
100
AcDbLayerTableRecord
  2
0
 70
     0
 62
     7
  6
CONTINUOUS
  0
LAYER
  5
62
330
2
100
AcDbSymbolTableRecord
100
AcDbLayerTableRecord
  2
SLD-0
 70
     0
 62
    -7
  6
CONTINUOUS
  0
LAYER
  5
63
330
2
100
AcDbSymbolTableRecord
100
AcDbLayerTableRecord
  2
FORMAT
 70
     0
 62
     7
  6
CONTINUOUS
  0
ENDTAB
  0
TABLE
  2
STYLE
  5
3
330
0
100
AcDbSymbolTable
 70
     2
  0
STYLE
  5
11
330
3
100
AcDbSymbolTableRecord
100
AcDbTextStyleTableRecord
  2
STANDARD
 70
     0
 40
0.0
 41
1.0
 50
0.0
 71
     0
 42
0.2
  3
txt
  4

  0
STYLE
  5
16D
330
3
100
AcDbSymbolTableRecord
100
AcDbTextStyleTableRecord
  2
SLDTEXTSTYLE0
 70
     0
 40
0.0
 41
0.605
 50
0.0
 71
     0
 42
0.2
  3
TXT
  4

  0
ENDTAB
  0
TABLE
  2
VIEW
  5
6
330
0
100
AcDbSymbolTable
 70
     0
  0
ENDTAB
  0
TABLE
  2
UCS
  5
7
330
0
100
AcDbSymbolTable
 70
     0
  0
ENDTAB
  0
TABLE
  2
APPID
  5
9
330
0
100
AcDbSymbolTable
 70
     1
  0
APPID
  5
12
330
9
100
AcDbSymbolTableRecord
100
AcDbRegAppTableRecord
  2
ACAD
 70
     0
  0
ENDTAB
  0
TABLE
  2
DIMSTYLE
  5
A
330
0
100
AcDbSymbolTable
 70
     1
  0
DIMSTYLE
105
27
330
A
100
AcDbSymbolTableRecord
100
AcDbDimStyleTableRecord
  2
STANDARD
 70
     0
  3

  4

  5

  6

  7

 40
1.0
 41
0.18
 42
0.0625
 43
0.38
 44
0.18
 45
0.0
 46
0.0
 47
0.0
 48
0.0
140
0.18
141
0.09
142
0.0
143
25.4
144
1.0
145
0.0
146
1.0
147
0.09
 71
     0
 72
     0
 73
     1
 74
     1
 75
     0
 76
     0
 77
     0
 78
     0
170
     0
171
     2
172
     0
173
     0
174
     0
175
     0
176
     0
177
     0
178
     0
270
     2
271
     4
272
     4
273
     2
274
     2
340
11
275
     0
280
     0
281
     0
282
     0
283
     1
284
     0
285
     0
286
     0
287
     3
288
     0
  0
ENDTAB
  0
TABLE
  2
BLOCK_RECORD
  5
1
330
0
100
AcDbSymbolTable
 70
     3
  0
BLOCK_RECORD
  5
1F
330
1
100
AcDbSymbolTableRecord
100
AcDbBlockTableRecord
  2
*MODEL_SPACE
  0
BLOCK_RECORD
  5
1B
330
1
100
AcDbSymbolTableRecord
100
AcDbBlockTableRecord
  2
*PAPER_SPACE
  0
BLOCK_RECORD
  5
16A
330
1
100
AcDbSymbolTableRecord
100
AcDbBlockTableRecord
  2
SW_NOTE_48
  0
BLOCK_RECORD
  5
278
330
1
100
AcDbSymbolTableRecord
100
AcDbBlockTableRecord
  2
SW_NOTE_49
  0
ENDTAB
  0
ENDSEC
  0
SECTION
  2
BLOCKS
  0
BLOCK
  5
20
330
1F
100
AcDbEntity
  8
0
100
AcDbBlockBegin
  2
*MODEL_SPACE
 70
     0
 10
0.0
 20
0.0
 30
0.0
  3
*MODEL_SPACE
  1

  0
ENDBLK
  5
21
330
1F
100
AcDbEntity
  8
0
100
AcDbBlockEnd
  0
BLOCK
  5
1C
330
1B
100
AcDbEntity
 67
     1
  8
0
100
AcDbBlockBegin
  2
*PAPER_SPACE
 70
     0
 10
0.0
 20
0.0
 30
0.0
  3
*PAPER_SPACE
  1

  0
ENDBLK
  5
1D
330
1B
100
AcDbEntity
 67
     1
  8
0
100
AcDbBlockEnd
  0
BLOCK
  5
16B
330
16A
100
AcDbEntity
  8
0
100
AcDbBlockBegin
  2
SW_NOTE_48
 70
     0
 10
0.0
 20
0.0
 30
0.0
  3
SW_NOTE_48
  1

  0
MTEXT
  5
16E
330
16A
100
AcDbEntity
  8
FORMAT
 62
     0
100
AcDbMText
 10
0.0
 20
0.1342778896
 30
0.0
 40
0.1041666667
 41
0.0
 71
     1
 72
     1
  1
FL-20
  7
SLDTEXTSTYLE0
  0
MTEXT
  5
16F
330
16A
100
AcDbEntity
  8
FORMAT
 62
     0
100
AcDbMText
 10
-0.22376541
 20
-0.0046109977
 30
0.0
 40
0.1041666667
 41
0.0
 71
     1
 72
     1
  1
JET THROW
  7
SLDTEXTSTYLE0
  0
MTEXT
  5
170
330
16A
100
AcDbEntity
  8
FORMAT
 62
     0
100
AcDbMText
 10
-0.2121913804
 20
-0.1434998849
 30
0.0
 40
0.1041666667
 41
0.0
 71
     1
 72
     1
  1
BORDER 14
  7
SLDTEXTSTYLE0
  0
ENDBLK
  5
16C
330
16A
100
AcDbEntity
  8
0
100
AcDbBlockEnd
  0
BLOCK
  5
279
330
278
100
AcDbEntity
  8
0
100
AcDbBlockBegin
  2
SW_NOTE_49
 70
     0
 10
0.0
 20
0.0
 30
0.0
  3
SW_NOTE_49
  1

  0
MTEXT
  5
27B
330
278
100
AcDbEntity
  8
FORMAT
 62
     0
100
AcDbMText
 10
0.0
 20
0.1342778896
 30
0.0
 40
0.1041666667
 41
0.0
 71
     1
 72
     1
  1
FL-20
  7
SLDTEXTSTYLE0
  0
MTEXT
  5
27C
330
278
100
AcDbEntity
  8
FORMAT
 62
     0
100
AcDbMText
 10
-0.22376541
 20
-0.0046109977
 30
0.0
 40
0.1041666667
 41
0.0
 71
     1
 72
     1
  1
JET THROW
  7
SLDTEXTSTYLE0
  0
MTEXT
  5
27D
330
278
100
AcDbEntity
  8
FORMAT
 62
     0
100
AcDbMText
 10
-0.2121913804
 20
-0.1434998849
 30
0.0
 40
0.1041666667
 41
0.0
 71
     1
 72
     1
  1
BORDER 14
  7
SLDTEXTSTYLE0
  0
ENDBLK
  5
27A
330
278
100
AcDbEntity
  8
0
100
AcDbBlockEnd
  0
ENDSEC
  0
SECTION
  2
ENTITIES
  0
SPLINE
  5
64
330
1F
100
AcDbEntity
  8
0
  6
CONTINUOUS
 62
     7
100
AcDbSpline
210
0.0
220
0.0
230
1.0
 70
    24
 71
     1
 72
     4
 73
     2
 74
     0
 42
0.00000001
 43
0.00000001
 40
0.0
 40
0.0
 40
1.0
 40
1.0
 10
3.215189969604866
 20
5.853605623100525
 30
0.0
 10
3.329189969604866
 20
5.853605623100527
 30
0.0
  0
SPLINE
  5
65
330
1F
100
AcDbEntity
  8
0
  6
CONTINUOUS
 62
     7
100
AcDbSpline
210
0.0
220
0.0
230
1.0
 70
    24
 71
     1
 72
     4
 73
     2
 74
     0
 42
0.00000001
 43
0.00000001
 40
0.0
 40
0.0
 40
1.0
 40
1.0
 10
7.466189969604868
 20
5.853605623100524
 30
0.0
 10
7.580189969604868
 20
5.853605623100525
 30
0.0
  0
ARC
  5
66
330
1F
100
AcDbEntity
  8
0
  6
CONTINUOUS
 62
     7
100
AcDbCircle
 10
7.4756899696
 20
5.7378556231
 30
0.0
 40
0.0150000000000015
100
AcDbArc
 50
90.0
 51
180.0
  0
ARC
  5
67
330
1F
100
AcDbEntity
  8
0
  6
CONTINUOUS
 62
     7
100
AcDbCircle
 10
7.4756899696
 20
5.2048556231
 30
0.0
 40
0.0150000000000015
100
AcDbArc
 50
180.0
 51
270.0
  0
ARC
  5
68
330
1F
100
AcDbEntity
  8
0
  6
CONTINUOUS
 62
     7
100
AcDbCircle
 10
7.7576899696
 20
5.1748556231
 30
0.0
 40
0.0150000000000015
100
AcDbArc
 50
0.0
 51
90.0
  0
ARC
  5
69
330
1F
100
AcDbEntity
  8
0
  6
CONTINUOUS
 62
     7
100
AcDbCircle
 10
7.7576899696
 20
5.1428556231
 30
0.0
 40
0.0150000000000015
100
AcDbArc
 50
270.0
 51
0.0
  0
ARC
  5
6A
330
1F
100
AcDbEntity
  8
0
  6
CONTINUOUS
 62
     7
100
AcDbCircle
 10
7.4756899696
 20
5.1128556231
 30
0.0
 40
0.0150000000000015
100
AcDbArc
 50
90.0
 51
180.0
  0
ARC
  5
6B
330
1F
100
AcDbEntity
  8
0
  6
CONTINUOUS
 62
     7
100
AcDbCircle
 10
7.4166554817
 20
4.9628556231
 30
0.0
 40
0.0200000000000005
100
AcDbArc
 50
135.0
 51
270.0
  0
ARC
  5
6C
330
1F
100
AcDbEntity
  8
0
  6
CONTINUOUS
 62
     7
100
AcDbCircle
 10
7.6356899696
 20
4.9578556231
 30
0.0
 40
0.0150000000000006
100
AcDbArc
 50
270.0
 51
0.0
  0
ARC
  5
6D
330
1F
100
AcDbEntity
  8
0
  6
CONTINUOUS
 62
     7
100
AcDbCircle
 10
7.6656899696
 20
4.9908556231
 30
0.0
 40
0.0150000000000006
100
AcDbArc
 50
90.0
 51
180.0
  0
ARC
  5
6E
330
1F
100
AcDbEntity
  8
0
  6
CONTINUOUS
 62
     7
100
AcDbCircle
 10
7.7576899696
 20
4.9908556231
 30
0.0
 40
0.0150000000000015
100
AcDbArc
 50
0.0
 51
90.0
  0
ARC
  5
6F
330
1F
100
AcDbEntity
  8
0
  6
CONTINUOUS
 62
     7
100
AcDbCircle
 10
7.7576899696
 20
4.8958556231
 30
0.0
 40
0.0150000000000015
100
AcDbArc
 50
270.0
 51
0.0
  0
ARC
  5
70
330
1F
100
AcDbEntity
  8
0
  6
CONTINUOUS
 62
     7
100
AcDbCircle
 10
6.4136899696
 20
4.8958556231
 30
0.0
 40
0.0150000000000006
100
AcDbArc
 50
180.0
 51
270.0
  0
ARC
  5
71
330
1F
100
AcDbEntity
  8
0
  6
CONTINUOUS
 62
     7
100
AcDbCircle
 10
6.4136899696
 20
4.9278556231
 30
0.0
 40
0.0149999999999988
100
AcDbArc
 50
90.0
 51
180.0
  0
ARC
  5
72
330
1F
100
AcDbEntity
  8
0
  6
CONTINUOUS
 62
     7
100
AcDbCircle
 10
7.2744767662
 20
4.9578556231
 30
0.0
 40
0.0150000000000006
100
AcDbArc
 50
270.0
 51
315.0
  0
ARC
  5
73
330
1F
100
AcDbEntity
  8
0
  6
CONTINUOUS
 62
     7
100
AcDbCircle
 10
7.3836899696
 20
5.0670688265
 30
0.0
 40
0.0150000000000006
100
AcDbArc
 50
315.0
 51
0.0
  0
ARC
  5
74
330
1F
100
AcDbEntity
  8
0
  6
CONTINUOUS
 62
     7
100
AcDbCircle
 10
7.4136899696
 20
6.1118556231
 30
0.0
 40
0.0150000000000015
100
AcDbArc
 50
90.0
 51
180.0
  0
ARC
  5
75
330
1F
100
AcDbEntity
  8
0
  6
CONTINUOUS
 62
     7
100
AcDbCircle
 10
7.4456899696
 20
6.1118556231
 30
0.0
 40
0.0149999999999988
100
AcDbArc
 50
0.0
 51
90.0
  0
ARC
  5
76
330
1F
100
AcDbEntity
  8
0
  6
CONTINUOUS
 62
     7
100
AcDbCircle
 10
7.4756899696
 20
5.8298556231
 30
0.0
 40
0.0150000000000015
100
AcDbArc
 50
180.0
 51
270.0
  0
ARC
  5
77
330
1F
100
AcDbEntity
  8
0
  6
CONTINUOUS
 62
     7
100
AcDbCircle
 10
7.5706899696
 20
5.8298556231
 30
0.0
 40
0.0149999999999988
100
AcDbArc
 50
270.0
 51
0.0
  0
ARC
  5
78
330
1F
100
AcDbEntity
  8
0
  6
CONTINUOUS
 62
     7
100
AcDbCircle
 10
7.5706899696
 20
7.1118556231
 30
0.0
 40
0.0150000000000006
100
AcDbArc
 50
0.0
 51
90.0
  0
ARC
  5
79
330
1F
100
AcDbEntity
  8
0
  6
CONTINUOUS
 62
     7
100
AcDbCircle
 10
7.4756899696
 20
7.1118556231
 30
0.0
 40
0.0150000000000015
100
AcDbArc
 50
90.0
 51
180.0
  0
LINE
  5
7A
330
1F
100
AcDbEntity
  8
0
  6
CONTINUOUS
 62
     7
100
AcDbLine
 10
7.4606899696
 20
7.0018556231
 30
0.0
 11
7.4136899696
 21
7.0018556231
 31
0.0
  0
LINE
  5
7B
330
1F
100
AcDbEntity
  8
0
  6
CONTINUOUS
 62
     7
100
AcDbLine
 10
7.3986899696
 20
7.0168556231
 30
0.0
 11
7.3986899696
 21
7.1738556231
 31
0.0
  0
LINE
  5
7C
330
1F
100
AcDbEntity
  8
0
  6
CONTINUOUS
 62
     7
100
AcDbLine
 10
7.4136899696
 20
7.1888556231
 30
0.0
 11
7.7576899696
 21
7.1888556231
 31
0.0
  0
LINE
  5
7D
330
1F
100
AcDbEntity
  8
0
  6
CONTINUOUS
 62
     7
100
AcDbLine
 10
7.7576899696
 20
7.0588556231
 30
0.0
 11
7.7256899696
 21
7.0588556231
 31
0.0
  0
LINE
  5
7E
330
1F
100
AcDbEntity
  8
0
  6
CONTINUOUS
 62
     7
100
AcDbLine
 10
7.7106899696
 20
7.0738556231
 30
0.0
 11
7.7106899696
 21
7.1118556231
 31
0.0
  0
ARC
  5
7F
330
1F
100
AcDbEntity
  8
0
  6
CONTINUOUS
 62
     7
100
AcDbCircle
 10
7.6956899696
 20
7.1118556231
 30
0.0
 40
0.0150000000000006
100
AcDbArc
 50
0.0
 51
90.0
  0
LINE
  5
80
330
1F
100
AcDbEntity
  8
0
  6
CONTINUOUS
 62
     7
100
AcDbLine
 10
7.6956899696
 20
7.1268556231
 30
0.0
 11
7.6626899696
 21
7.1268556231
 31
0.0
  0
ARC
  5
81
330
1F
100
AcDbEntity
  8
0
  6
CONTINUOUS
 62
     7
100
AcDbCircle
 10
7.6626899696
 20
7.1118556231
 30
0.0
 40
0.0150000000000006
100
AcDbArc
 50
90.0
 51
180.0
  0
LINE
  5
82
330
1F
100
AcDbEntity
  8
0
  6
CONTINUOUS
 62
     7
100
AcDbLine
 10
7.6476899696
 20
7.1118556231
 30
0.0
 11
7.6476899696
 21
6.5168556231
 31
0.0
  0
ARC
  5
83
330
1F
100
AcDbEntity
  8
0
  6
CONTINUOUS
 62
     7
100
AcDbCircle
 10
7.6626899696
 20
6.5168556231
 30
0.0
 40
0.0150000000000006
100
AcDbArc
 50
180.0
 51
270.0
  0
LINE
  5
84
330
1F
100
AcDbEntity
  8
0
  6
CONTINUOUS
 62
     7
100
AcDbLine
 10
7.6626899696
 20
6.5018556231
 30
0.0
 11
7.6956899696
 21
6.5018556231
 31
0.0
  0
ARC
  5
85
330
1F
100
AcDbEntity
  8
0
  6
CONTINUOUS
 62
     7
100
AcDbCircle
 10
7.6956899696
 20
6.5168556231
 30
0.0
 40
0.0150000000000006
100
AcDbArc
 50
270.0
 51
0.0
  0
ARC
  5
86
330
1F
100
AcDbEntity
  8
0
  6
CONTINUOUS
 62
     7
100
AcDbCircle
 10
7.7256899696
 20
6.5548556231
 30
0.0
 40
0.0150000000000006
100
AcDbArc
 50
90.0
 51
180.0
  0
LINE
  5
87
330
1F
100
AcDbEntity
  8
0
  6
CONTINUOUS
 62
     7
100
AcDbLine
 10
7.7256899696
 20
6.5698556231
 30
0.0
 11
7.7576899696
 21
6.5698556231
 31
0.0
  0
ARC
  5
88
330
1F
100
AcDbEntity
  8
0
  6
CONTINUOUS
 62
     7
100
AcDbCircle
 10
7.7576899696
 20
6.5548556231
 30
0.0
 40
0.0150000000000015
100
AcDbArc
 50
0.0
 51
90.0
  0
LINE
  5
89
330
1F
100
AcDbEntity
  8
0
  6
CONTINUOUS
 62
     7
100
AcDbLine
 10
7.7726899696
 20
6.5548556231
 30
0.0
 11
7.7726899696
 21
6.3868556231
 31
0.0
  0
ARC
  5
8A
330
1F
100
AcDbEntity
  8
0
  6
CONTINUOUS
 62
     7
100
AcDbCircle
 10
7.7576899696
 20
6.3868556231
 30
0.0
 40
0.0150000000000015
100
AcDbArc
 50
270.0
 51
0.0
  0
LINE
  5
8B
330
1F
100
AcDbEntity
  8
0
  6
CONTINUOUS
 62
     7
100
AcDbLine
 10
7.7576899696
 20
6.3718556231
 30
0.0
 11
7.7256899696
 21
6.3718556231
 31
0.0
  0
ARC
  5
8C
330
1F
100
AcDbEntity
  8
0
  6
CONTINUOUS
 62
     7
100
AcDbCircle
 10
7.7256899696
 20
6.3868556231
 30
0.0
 40
0.0150000000000006
100
AcDbArc
 50
180.0
 51
270.0
  0
LINE
  5
8D
330
1F
100
AcDbEntity
  8
0
  6
CONTINUOUS
 62
     7
100
AcDbLine
 10
7.7106899696
 20
6.3868556231
 30
0.0
 11
7.7106899696
 21
6.4248556231
 31
0.0
  0
ARC
  5
8E
330
1F
100
AcDbEntity
  8
0
  6
CONTINUOUS
 62
     7
100
AcDbCircle
 10
7.6956899696
 20
6.4248556231
 30
0.0
 40
0.0150000000000006
100
AcDbArc
 50
0.0
 51
90.0
  0
LINE
  5
8F
330
1F
100
AcDbEntity
  8
0
  6
CONTINUOUS
 62
     7
100
AcDbLine
 10
7.6956899696
 20
6.4398556231
 30
0.0
 11
7.6626899696
 21
6.4398556231
 31
0.0
  0
ARC
  5
90
330
1F
100
AcDbEntity
  8
0
  6
CONTINUOUS
 62
     7
100
AcDbCircle
 10
7.6626899696
 20
6.4248556231
 30
0.0
 40
0.0149999999999988
100
AcDbArc
 50
90.0
 51
180.0
  0
LINE
  5
91
330
1F
100
AcDbEntity
  8
0
  6
CONTINUOUS
 62
     7
100
AcDbLine
 10
7.6476899696
 20
6.4248556231
 30
0.0
 11
7.6476899696
 21
5.8298556231
 31
0.0
  0
ARC
  5
92
330
1F
100
AcDbEntity
  8
0
  6
CONTINUOUS
 62
     7
100
AcDbCircle
 10
7.6626899696
 20
5.8298556231
 30
0.0
 40
0.0149999999999988
100
AcDbArc
 50
180.0
 51
270.0
  0
ARC
  5
93
330
1F
100
AcDbEntity
  8
0
  6
CONTINUOUS
 62
     7
100
AcDbCircle
 10
7.6956899696
 20
5.8298556231
 30
0.0
 40
0.0150000000000006
100
AcDbArc
 50
270.0
 51
0.0
  0
ARC
  5
94
330
1F
100
AcDbEntity
  8
0
  6
CONTINUOUS
 62
     7
100
AcDbCircle
 10
7.7256899696
 20
5.8678556231
 30
0.0
 40
0.0150000000000015
100
AcDbArc
 50
90.0
 51
180.0
  0
ARC
  5
95
330
1F
100
AcDbEntity
  8
0
  6
CONTINUOUS
 62
     7
100
AcDbCircle
 10
7.7576899696
 20
5.8678556231
 30
0.0
 40
0.0150000000000015
100
AcDbArc
 50
0.0
 51
90.0
  0
ARC
  5
96
330
1F
100
AcDbEntity
  8
0
  6
CONTINUOUS
 62
     7
100
AcDbCircle
 10
7.7226899696
 20
5.8028556231
 30
0.0
 40
0.0499999999999998
100
AcDbArc
 50
270.0
 51
0.0
  0
LINE
  5
97
330
1F
100
AcDbEntity
  8
0
  6
CONTINUOUS
 62
     7
100
AcDbLine
 10
7.7726899696
 20
7.1738556231
 30
0.0
 11
7.7726899696
 21
7.0738556231
 31
0.0
  0
LINE
  5
98
330
1F
100
AcDbEntity
  8
0
  6
CONTINUOUS
 62
     7
100
AcDbLine
 10
7.4606899696
 20
7.1118556231
 30
0.0
 11
7.4606899696
 21
7.0018556231
 31
0.0
  0
LINE
  5
99
330
1F
100
AcDbEntity
  8
0
  6
CONTINUOUS
 62
     7
100
AcDbLine
 10
7.5706899696
 20
7.1268556231
 30
0.0
 11
7.4756899696
 21
7.1268556231
 31
0.0
  0
LINE
  5
9A
330
1F
100
AcDbEntity
  8
0
  6
CONTINUOUS
 62
     7
100
AcDbLine
 10
7.5856899696
 20
5.8298556231
 30
0.0
 11
7.5856899696
 21
7.1118556231
 31
0.0
  0
LINE
  5
9B
330
1F
100
AcDbEntity
  8
0
  6
CONTINUOUS
 62
     7
100
AcDbLine
 10
7.4756899696
 20
5.8148556231
 30
0.0
 11
7.5706899696
 21
5.8148556231
 31
0.0
  0
LINE
  5
9C
330
1F
100
AcDbEntity
  8
0
  6
CONTINUOUS
 62
     7
100
AcDbLine
 10
7.4606899696
 20
6.1118556231
 30
0.0
 11
7.4606899696
 21
5.8298556231
 31
0.0
  0
LINE
  5
9D
330
1F
100
AcDbEntity
  8
0
  6
CONTINUOUS
 62
     7
100
AcDbLine
 10
7.4136899696
 20
6.1268556231
 30
0.0
 11
7.4456899696
 21
6.1268556231
 31
0.0
  0
LINE
  5
9E
330
1F
100
AcDbEntity
  8
0
  6
CONTINUOUS
 62
     7
100
AcDbLine
 10
7.3986899696
 20
5.0670688265
 30
0.0
 11
7.3986899696
 21
6.1118556231
 31
0.0
  0
LINE
  5
9F
330
1F
100
AcDbEntity
  8
0
  6
CONTINUOUS
 62
     7
100
AcDbLine
 10
7.2850833679
 20
4.9472490214
 30
0.0
 11
7.3942965713
 21
5.0564622248
 31
0.0
  0
LINE
  5
A0
330
1F
100
AcDbEntity
  8
0
  6
CONTINUOUS
 62
     7
100
AcDbLine
 10
6.4136899696
 20
4.9428556231
 30
0.0
 11
7.2744767662
 21
4.9428556231
 31
0.0
  0
LINE
  5
A1
330
1F
100
AcDbEntity
  8
0
  6
CONTINUOUS
 62
     7
100
AcDbLine
 10
6.3986899696
 20
4.8958556231
 30
0.0
 11
6.3986899696
 21
4.9278556231
 31
0.0
  0
LINE
  5
A2
330
1F
100
AcDbEntity
  8
0
  6
CONTINUOUS
 62
     7
100
AcDbLine
 10
7.7576899696
 20
4.8808556231
 30
0.0
 11
6.4136899696
 21
4.8808556231
 31
0.0
  0
LINE
  5
A3
330
1F
100
AcDbEntity
  8
0
  6
CONTINUOUS
 62
     7
100
AcDbLine
 10
7.7726899696
 20
4.9908556231
 30
0.0
 11
7.7726899696
 21
4.8958556231
 31
0.0
  0
LINE
  5
A4
330
1F
100
AcDbEntity
  8
0
  6
CONTINUOUS
 62
     7
100
AcDbLine
 10
7.6656899696
 20
5.0058556231
 30
0.0
 11
7.7576899696
 21
5.0058556231
 31
0.0
  0
LINE
  5
A5
330
1F
100
AcDbEntity
  8
0
  6
CONTINUOUS
 62
     7
100
AcDbLine
 10
7.6506899696
 20
4.9578556231
 30
0.0
 11
7.6506899696
 21
4.9908556231
 31
0.0
  0
LINE
  5
A6
330
1F
100
AcDbEntity
  8
0
  6
CONTINUOUS
 62
     7
100
AcDbLine
 10
7.4166554817
 20
4.9428556231
 30
0.0
 11
7.6356899696
 21
4.9428556231
 31
0.0
  0
LINE
  5
A7
330
1F
100
AcDbEntity
  8
0
  6
CONTINUOUS
 62
     7
100
AcDbLine
 10
7.4606899696
 20
5.0351743822
 30
0.0
 11
7.4025133461
 21
4.9769977587
 31
0.0
  0
LINE
  5
A8
330
1F
100
AcDbEntity
  8
0
  6
CONTINUOUS
 62
     7
100
AcDbLine
 10
7.4606899696
 20
5.1128556231
 30
0.0
 11
7.4606899696
 21
5.0351743822
 31
0.0
  0
LINE
  5
A9
330
1F
100
AcDbEntity
  8
0
  6
CONTINUOUS
 62
     7
100
AcDbLine
 10
7.7576899696
 20
5.1278556231
 30
0.0
 11
7.4756899696
 21
5.1278556231
 31
0.0
  0
LINE
  5
AA
330
1F
100
AcDbEntity
  8
0
  6
CONTINUOUS
 62
     7
100
AcDbLine
 10
7.7726899696
 20
5.1748556231
 30
0.0
 11
7.7726899696
 21
5.1428556231
 31
0.0
  0
LINE
  5
AB
330
1F
100
AcDbEntity
  8
0
  6
CONTINUOUS
 62
     7
100
AcDbLine
 10
7.4756899696
 20
5.1898556231
 30
0.0
 11
7.7576899696
 21
5.1898556231
 31
0.0
  0
LINE
  5
AC
330
1F
100
AcDbEntity
  8
0
  6
CONTINUOUS
 62
     7
100
AcDbLine
 10
7.4606899696
 20
5.7378556231
 30
0.0
 11
7.4606899696
 21
5.2048556231
 31
0.0
  0
LINE
  5
AD
330
1F
100
AcDbEntity
  8
0
  6
CONTINUOUS
 62
     7
100
AcDbLine
 10
7.7226899696
 20
5.7528556231
 30
0.0
 11
7.4756899696
 21
5.7528556231
 31
0.0
  0
LINE
  5
AE
330
1F
100
AcDbEntity
  8
0
  6
CONTINUOUS
 62
     7
100
AcDbLine
 10
7.7726899696
 20
5.8678556231
 30
0.0
 11
7.7726899696
 21
5.8028556231
 31
0.0
  0
LINE
  5
AF
330
1F
100
AcDbEntity
  8
0
  6
CONTINUOUS
 62
     7
100
AcDbLine
 10
7.7256899696
 20
5.8828556231
 30
0.0
 11
7.7576899696
 21
5.8828556231
 31
0.0
  0
LINE
  5
B0
330
1F
100
AcDbEntity
  8
0
  6
CONTINUOUS
 62
     7
100
AcDbLine
 10
7.7106899696
 20
5.8298556231
 30
0.0
 11
7.7106899696
 21
5.8678556231
 31
0.0
  0
LINE
  5
B1
330
1F
100
AcDbEntity
  8
0
  6
CONTINUOUS
 62
     7
100
AcDbLine
 10
7.6626899696
 20
5.8148556231
 30
0.0
 11
7.6956899696
 21
5.8148556231
 31
0.0
  0
ARC
  5
B2
330
1F
100
AcDbEntity
  8
0
  6
CONTINUOUS
 62
     7
100
AcDbCircle
 10
7.7576899696
 20
7.0738556231
 30
0.0
 40
0.0150000000000015
100
AcDbArc
 50
270.0
 51
0.0
  0
ARC
  5
B3
330
1F
100
AcDbEntity
  8
0
  6
CONTINUOUS
 62
     7
100
AcDbCircle
 10
7.7256899696
 20
7.0738556231
 30
0.0
 40
0.0149999999999988
100
AcDbArc
 50
180.0
 51
270.0
  0
ARC
  5
B4
330
1F
100
AcDbEntity
  8
0
  6
CONTINUOUS
 62
     7
100
AcDbCircle
 10
7.4136899696
 20
7.0168556231
 30
0.0
 40
0.0150000000000015
100
AcDbArc
 50
180.0
 51
270.0
  0
ARC
  5
B5
330
1F
100
AcDbEntity
  8
0
  6
CONTINUOUS
 62
     7
100
AcDbCircle
 10
7.4136899696
 20
7.1738556231
 30
0.0
 40
0.0150000000000015
100
AcDbArc
 50
90.0
 51
180.0
  0
LINE
  5
B6
330
1F
100
AcDbEntity
  8
0
  6
CONTINUOUS
 62
     7
100
AcDbLine
 10
7.7106899696
 20
6.5168556231
 30
0.0
 11
7.7106899696
 21
6.5548556231
 31
0.0
  0
ARC
  5
B7
330
1F
100
AcDbEntity
  8
0
  6
CONTINUOUS
 62
     7
100
AcDbCircle
 10
7.7576899696
 20
7.1738556231
 30
0.0
 40
0.0150000000000015
100
AcDbArc
 50
0.0
 51
90.0
  0
ARC
  5
B8
330
1F
100
AcDbEntity
  8
0
  6
CONTINUOUS
 62
     7
100
AcDbCircle
 10
4.3816899696
 20
5.5208556231
 30
0.0
 40
0.0149999999999997
100
AcDbArc
 50
270.0
 51
0.0
  0
LINE
  5
B9
330
1F
100
AcDbEntity
  8
0
  6
CONTINUOUS
 62
     7
100
AcDbLine
 10
3.3346899696
 20
7.1118556231
 30
0.0
 11
3.3346899696
 21
7.0018556231
 31
0.0
  0
LINE
  5
BA
330
1F
100
AcDbEntity
  8
0
  6
CONTINUOUS
 62
     7
100
AcDbLine
 10
3.2246899696
 20
7.1268556231
 30
0.0
 11
3.3196899696
 21
7.1268556231
 31
0.0
  0
ARC
  5
BB
330
1F
100
AcDbEntity
  8
0
  6
CONTINUOUS
 62
     7
100
AcDbCircle
 10
3.3196899696
 20
5.7378556231
 30
0.0
 40
0.0150000000000015
100
AcDbArc
 50
0.0
 51
90.0
  0
ARC
  5
BC
330
1F
100
AcDbEntity
  8
0
  6
CONTINUOUS
 62
     7
100
AcDbCircle
 10
3.1596899696
 20
5.5828556231
 30
0.0
 40
0.0150000000000006
100
AcDbArc
 50
180.0
 51
270.0
  0
ARC
  5
BD
330
1F
100
AcDbEntity
  8
0
  6
CONTINUOUS
 62
     7
100
AcDbCircle
 10
3.0376899696
 20
5.6158556231
 30
0.0
 40
0.0150000000000001
100
AcDbArc
 50
90.0
 51
180.0
  0
ARC
  5
BE
330
1F
100
AcDbEntity
  8
0
  6
CONTINUOUS
 62
     7
100
AcDbCircle
 10
3.1296899696
 20
5.6158556231
 30
0.0
 40
0.0150000000000001
100
AcDbArc
 50
0.0
 51
90.0
  0
ARC
  5
BF
330
1F
100
AcDbEntity
  8
0
  6
CONTINUOUS
 62
     7
100
AcDbCircle
 10
3.1326899696
 20
6.5168556231
 30
0.0
 40
0.0150000000000006
100
AcDbArc
 50
270.0
 51
0.0
  0
ARC
  5
C0
330
1F
100
AcDbEntity
  8
0
  6
CONTINUOUS
 62
     7
100
AcDbCircle
 10
3.2246899696
 20
7.1118556231
 30
0.0
 40
0.0150000000000001
100
AcDbArc
 50
90.0
 51
180.0
  0
ARC
  5
C1
330
1F
100
AcDbEntity
  8
0
  6
CONTINUOUS
 62
     7
100
AcDbCircle
 10
3.1326899696
 20
7.1118556231
 30
0.0
 40
0.0150000000000006
100
AcDbArc
 50
0.0
 51
90.0
  0
ARC
  5
C2
330
1F
100
AcDbEntity
  8
0
  6
CONTINUOUS
 62
     7
100
AcDbCircle
 10
3.3196899696
 20
7.1118556231
 30
0.0
 40
0.0150000000000001
100
AcDbArc
 50
0.0
 51
90.0
  0
ARC
  5
C3
330
1F
100
AcDbEntity
  8
0
  6
CONTINUOUS
 62
     7
100
AcDbCircle
 10
3.0376899696
 20
6.5548556231
 30
0.0
 40
0.0150000000000001
100
AcDbArc
 50
90.0
 51
180.0
  0
ARC
  5
C4
330
1F
100
AcDbEntity
  8
0
  6
CONTINUOUS
 62
     7
100
AcDbCircle
 10
3.0696899696
 20
6.5548556231
 30
0.0
 40
0.0150000000000001
100
AcDbArc
 50
0.0
 51
90.0
  0
ARC
  5
C5
330
1F
100
AcDbEntity
  8
0
  6
CONTINUOUS
 62
     7
100
AcDbCircle
 10
3.0996899696
 20
6.5168556231
 30
0.0
 40
0.0150000000000006
100
AcDbArc
 50
180.0
 51
270.0
  0
ARC
  5
C6
330
1F
100
AcDbEntity
  8
0
  6
CONTINUOUS
 62
     7
100
AcDbCircle
 10
3.1326899696
 20
6.4248556231
 30
0.0
 40
0.0150000000000006
100
AcDbArc
 50
0.0
 51
90.0
  0
ARC
  5
C7
330
1F
100
AcDbEntity
  8
0
  6
CONTINUOUS
 62
     7
100
AcDbCircle
 10
3.0996899696
 20
6.4248556231
 30
0.0
 40
0.0150000000000006
100
AcDbArc
 50
90.0
 51
180.0
  0
ARC
  5
C8
330
1F
100
AcDbEntity
  8
0
  6
CONTINUOUS
 62
     7
100
AcDbCircle
 10
3.0696899696
 20
6.3868556231
 30
0.0
 40
0.0150000000000006
100
AcDbArc
 50
270.0
 51
0.0
  0
ARC
  5
C9
330
1F
100
AcDbEntity
  8
0
  6
CONTINUOUS
 62
     7
100
AcDbCircle
 10
3.0376899696
 20
6.3868556231
 30
0.0
 40
0.0150000000000006
100
AcDbArc
 50
180.0
 51
270.0
  0
ARC
  5
CA
330
1F
100
AcDbEntity
  8
0
  6
CONTINUOUS
 62
     7
100
AcDbCircle
 10
3.3816899696
 20
6.1118556231
 30
0.0
 40
0.0149999999999997
100
AcDbArc
 50
0.0
 51
90.0
  0
ARC
  5
CB
330
1F
100
AcDbEntity
  8
0
  6
CONTINUOUS
 62
     7
100
AcDbCircle
 10
3.3496899696
 20
6.1118556231
 30
0.0
 40
0.0149999999999997
100
AcDbArc
 50
90.0
 51
180.0
  0
ARC
  5
CC
330
1F
100
AcDbEntity
  8
0
  6
CONTINUOUS
 62
     7
100
AcDbCircle
 10
3.3196899696
 20
5.8298556231
 30
0.0
 40
0.0150000000000001
100
AcDbArc
 50
270.0
 51
0.0
  0
ARC
  5
CD
330
1F
100
AcDbEntity
  8
0
  6
CONTINUOUS
 62
     7
100
AcDbCircle
 10
3.2246899696
 20
5.8298556231
 30
0.0
 40
0.0150000000000001
100
AcDbArc
 50
180.0
 51
270.0
  0
ARC
  5
CE
330
1F
100
AcDbEntity
  8
0
  6
CONTINUOUS
 62
     7
100
AcDbCircle
 10
3.1326899696
 20
5.8298556231
 30
0.0
 40
0.0150000000000006
100
AcDbArc
 50
270.0
 51
0.0
  0
ARC
  5
CF
330
1F
100
AcDbEntity
  8
0
  6
CONTINUOUS
 62
     7
100
AcDbCircle
 10
3.0996899696
 20
5.8298556231
 30
0.0
 40
0.0150000000000001
100
AcDbArc
 50
180.0
 51
270.0
  0
ARC
  5
D0
330
1F
100
AcDbEntity
  8
0
  6
CONTINUOUS
 62
     7
100
AcDbCircle
 10
3.0376899696
 20
5.8678556231
 30
0.0
 40
0.0150000000000001
100
AcDbArc
 50
90.0
 51
180.0
  0
ARC
  5
D1
330
1F
100
AcDbEntity
  8
0
  6
CONTINUOUS
 62
     7
100
AcDbCircle
 10
3.0696899696
 20
5.8678556231
 30
0.0
 40
0.0150000000000001
100
AcDbArc
 50
0.0
 51
90.0
  0
ARC
  5
D2
330
1F
100
AcDbEntity
  8
0
  6
CONTINUOUS
 62
     7
100
AcDbCircle
 10
3.3496899696
 20
5.6663875857
 30
0.0
 40
0.0149999999999997
100
AcDbArc
 50
180.0
 51
225.0
  0
ARC
  5
D3
330
1F
100
AcDbEntity
  8
0
  6
CONTINUOUS
 62
     7
100
AcDbCircle
 10
3.520903173
 20
5.5828556231
 30
0.0
 40
0.0150000000000006
100
AcDbArc
 50
225.0
 51
270.0
  0
ARC
  5
D4
330
1F
100
AcDbEntity
  8
0
  6
CONTINUOUS
 62
     7
100
AcDbCircle
 10
3.4116899696
 20
5.6920688265
 30
0.0
 40
0.0150000000000002
100
AcDbArc
 50
180.0
 51
225.0
  0
ARC
  5
D5
330
1F
100
AcDbEntity
  8
0
  6
CONTINUOUS
 62
     7
100
AcDbCircle
 10
4.3816899696
 20
5.5528556231
 30
0.0
 40
0.0149999999999997
100
AcDbArc
 50
0.0
 51
90.0
  0
ARC
  5
D6
330
1F
100
AcDbEntity
  8
0
  6
CONTINUOUS
 62
     7
100
AcDbCircle
 10
3.0376899696
 20
5.5208556231
 30
0.0
 40
0.0150000000000001
100
AcDbArc
 50
180.0
 51
270.0
  0
LINE
  5
D7
330
1F
100
AcDbEntity
  8
0
  6
CONTINUOUS
 62
     7
100
AcDbLine
 10
3.2096899696
 20
5.8298556231
 30
0.0
 11
3.2096899696
 21
7.1118556231
 31
0.0
  0
LINE
  5
D8
330
1F
100
AcDbEntity
  8
0
  6
CONTINUOUS
 62
     7
100
AcDbLine
 10
3.3196899696
 20
5.8148556231
 30
0.0
 11
3.2246899696
 21
5.8148556231
 31
0.0
  0
LINE
  5
D9
330
1F
100
AcDbEntity
  8
0
  6
CONTINUOUS
 62
     7
100
AcDbLine
 10
3.3346899696
 20
6.1118556231
 30
0.0
 11
3.3346899696
 21
5.8298556231
 31
0.0
  0
LINE
  5
DA
330
1F
100
AcDbEntity
  8
0
  6
CONTINUOUS
 62
     7
100
AcDbLine
 10
3.3816899696
 20
6.1268556231
 30
0.0
 11
3.3496899696
 21
6.1268556231
 31
0.0
  0
LINE
  5
DB
330
1F
100
AcDbEntity
  8
0
  6
CONTINUOUS
 62
     7
100
AcDbLine
 10
3.3966899696
 20
5.6920688265
 30
0.0
 11
3.3966899696
 21
6.1118556231
 31
0.0
  0
LINE
  5
DC
330
1F
100
AcDbEntity
  8
0
  6
CONTINUOUS
 62
     7
100
AcDbLine
 10
3.5102965713
 20
5.5722490214
 30
0.0
 11
3.4010833679
 21
5.6814622248
 31
0.0
  0
LINE
  5
DD
330
1F
100
AcDbEntity
  8
0
  6
CONTINUOUS
 62
     7
100
AcDbLine
 10
4.3816899696
 20
5.5678556231
 30
0.0
 11
3.520903173
 21
5.5678556231
 31
0.0
  0
LINE
  5
DE
330
1F
100
AcDbEntity
  8
0
  6
CONTINUOUS
 62
     7
100
AcDbLine
 10
4.3966899696
 20
5.5208556231
 30
0.0
 11
4.3966899696
 21
5.5528556231
 31
0.0
  0
LINE
  5
DF
330
1F
100
AcDbEntity
  8
0
  6
CONTINUOUS
 62
     7
100
AcDbLine
 10
3.0376899696
 20
5.5058556231
 30
0.0
 11
4.3816899696
 21
5.5058556231
 31
0.0
  0
LINE
  5
E0
330
1F
100
AcDbEntity
  8
0
  6
CONTINUOUS
 62
     7
100
AcDbLine
 10
3.0226899696
 20
5.6158556231
 30
0.0
 11
3.0226899696
 21
5.5208556231
 31
0.0
  0
LINE
  5
E1
330
1F
100
AcDbEntity
  8
0
  6
CONTINUOUS
 62
     7
100
AcDbLine
 10
3.1296899696
 20
5.6308556231
 30
0.0
 11
3.0376899696
 21
5.6308556231
 31
0.0
  0
LINE
  5
E2
330
1F
100
AcDbEntity
  8
0
  6
CONTINUOUS
 62
     7
100
AcDbLine
 10
3.1446899696
 20
5.5828556231
 30
0.0
 11
3.1446899696
 21
5.6158556231
 31
0.0
  0
LINE
  5
E3
330
1F
100
AcDbEntity
  8
0
  6
CONTINUOUS
 62
     7
100
AcDbLine
 10
3.3787244575
 20
5.5678556231
 30
0.0
 11
3.1596899696
 21
5.5678556231
 31
0.0
  0
LINE
  5
E4
330
1F
100
AcDbEntity
  8
0
  6
CONTINUOUS
 62
     7
100
AcDbLine
 10
3.3390833679
 20
5.655780984
 30
0.0
 11
3.3928665931
 21
5.6019977587
 31
0.0
  0
LINE
  5
E5
330
1F
100
AcDbEntity
  8
0
  6
CONTINUOUS
 62
     7
100
AcDbLine
 10
3.3346899696
 20
5.7378556231
 30
0.0
 11
3.3346899696
 21
5.6663875857
 31
0.0
  0
LINE
  5
E6
330
1F
100
AcDbEntity
  8
0
  6
CONTINUOUS
 62
     7
100
AcDbLine
 10
3.0726899696
 20
5.7528556231
 30
0.0
 11
3.3196899696
 21
5.7528556231
 31
0.0
  0
LINE
  5
E7
330
1F
100
AcDbEntity
  8
0
  6
CONTINUOUS
 62
     7
100
AcDbLine
 10
3.0226899696
 20
5.8678556231
 30
0.0
 11
3.0226899696
 21
5.8028556231
 31
0.0
  0
LINE
  5
E8
330
1F
100
AcDbEntity
  8
0
  6
CONTINUOUS
 62
     7
100
AcDbLine
 10
3.0696899696
 20
5.8828556231
 30
0.0
 11
3.0376899696
 21
5.8828556231
 31
0.0
  0
LINE
  5
E9
330
1F
100
AcDbEntity
  8
0
  6
CONTINUOUS
 62
     7
100
AcDbLine
 10
3.0846899696
 20
5.8298556231
 30
0.0
 11
3.0846899696
 21
5.8678556231
 31
0.0
  0
LINE
  5
EA
330
1F
100
AcDbEntity
  8
0
  6
CONTINUOUS
 62
     7
100
AcDbLine
 10
3.1326899696
 20
5.8148556231
 30
0.0
 11
3.0996899696
 21
5.8148556231
 31
0.0
  0
LINE
  5
EB
330
1F
100
AcDbEntity
  8
0
  6
CONTINUOUS
 62
     7
100
AcDbLine
 10
3.1476899696
 20
6.4248556231
 30
0.0
 11
3.1476899696
 21
5.8298556231
 31
0.0
  0
LINE
  5
EC
330
1F
100
AcDbEntity
  8
0
  6
CONTINUOUS
 62
     7
100
AcDbLine
 10
3.0996899696
 20
6.4398556231
 30
0.0
 11
3.1326899696
 21
6.4398556231
 31
0.0
  0
LINE
  5
ED
330
1F
100
AcDbEntity
  8
0
  6
CONTINUOUS
 62
     7
100
AcDbLine
 10
3.0846899696
 20
6.3868556231
 30
0.0
 11
3.0846899696
 21
6.4248556231
 31
0.0
  0
LINE
  5
EE
330
1F
100
AcDbEntity
  8
0
  6
CONTINUOUS
 62
     7
100
AcDbLine
 10
3.0376899696
 20
6.3718556231
 30
0.0
 11
3.0696899696
 21
6.3718556231
 31
0.0
  0
LINE
  5
EF
330
1F
100
AcDbEntity
  8
0
  6
CONTINUOUS
 62
     7
100
AcDbLine
 10
3.0226899696
 20
6.5548556231
 30
0.0
 11
3.0226899696
 21
6.3868556231
 31
0.0
  0
LINE
  5
F0
330
1F
100
AcDbEntity
  8
0
  6
CONTINUOUS
 62
     7
100
AcDbLine
 10
3.0696899696
 20
6.5698556231
 30
0.0
 11
3.0376899696
 21
6.5698556231
 31
0.0
  0
LINE
  5
F1
330
1F
100
AcDbEntity
  8
0
  6
CONTINUOUS
 62
     7
100
AcDbLine
 10
3.0846899696
 20
6.5168556231
 30
0.0
 11
3.0846899696
 21
6.5548556231
 31
0.0
  0
LINE
  5
F2
330
1F
100
AcDbEntity
  8
0
  6
CONTINUOUS
 62
     7
100
AcDbLine
 10
3.1326899696
 20
6.5018556231
 30
0.0
 11
3.0996899696
 21
6.5018556231
 31
0.0
  0
LINE
  5
F3
330
1F
100
AcDbEntity
  8
0
  6
CONTINUOUS
 62
     7
100
AcDbLine
 10
3.1476899696
 20
7.1118556231
 30
0.0
 11
3.1476899696
 21
6.5168556231
 31
0.0
  0
LINE
  5
F4
330
1F
100
AcDbEntity
  8
0
  6
CONTINUOUS
 62
     7
100
AcDbLine
 10
3.0996899696
 20
7.1268556231
 30
0.0
 11
3.1326899696
 21
7.1268556231
 31
0.0
  0
LINE
  5
F5
330
1F
100
AcDbEntity
  8
0
  6
CONTINUOUS
 62
     7
100
AcDbLine
 10
3.0846899696
 20
7.0738556231
 30
0.0
 11
3.0846899696
 21
7.1118556231
 31
0.0
  0
LINE
  5
F6
330
1F
100
AcDbEntity
  8
0
  6
CONTINUOUS
 62
     7
100
AcDbLine
 10
3.0376899696
 20
7.0588556231
 30
0.0
 11
3.0696899696
 21
7.0588556231
 31
0.0
  0
LINE
  5
F7
330
1F
100
AcDbEntity
  8
0
  6
CONTINUOUS
 62
     7
100
AcDbLine
 10
3.0226899696
 20
7.1738556231
 30
0.0
 11
3.0226899696
 21
7.0738556231
 31
0.0
  0
LINE
  5
F8
330
1F
100
AcDbEntity
  8
0
  6
CONTINUOUS
 62
     7
100
AcDbLine
 10
3.3816899696
 20
7.1888556231
 30
0.0
 11
3.0376899696
 21
7.1888556231
 31
0.0
  0
LINE
  5
F9
330
1F
100
AcDbEntity
  8
0
  6
CONTINUOUS
 62
     7
100
AcDbLine
 10
3.3966899696
 20
7.0168556231
 30
0.0
 11
3.3966899696
 21
7.1738556231
 31
0.0
  0
LINE
  5
FA
330
1F
100
AcDbEntity
  8
0
  6
CONTINUOUS
 62
     7
100
AcDbLine
 10
3.3346899696
 20
7.0018556231
 30
0.0
 11
3.3816899696
 21
7.0018556231
 31
0.0
  0
ARC
  5
FB
330
1F
100
AcDbEntity
  8
0
  6
CONTINUOUS
 62
     7
100
AcDbCircle
 10
3.0726899696
 20
5.8028556231
 30
0.0
 40
0.0500000000000003
100
AcDbArc
 50
180.0
 51
270.0
  0
ARC
  5
FC
330
1F
100
AcDbEntity
  8
0
  6
CONTINUOUS
 62
     7
100
AcDbCircle
 10
3.3787244575
 20
5.5878556231
 30
0.0
 40
0.0200000000000005
100
AcDbArc
 50
270.0
 51
45.0
  0
ARC
  5
FD
330
1F
100
AcDbEntity
  8
0
  6
CONTINUOUS
 62
     7
100
AcDbCircle
 10
3.0696899696
 20
7.0738556231
 30
0.0
 40
0.0150000000000015
100
AcDbArc
 50
270.0
 51
0.0
  0
ARC
  5
FE
330
1F
100
AcDbEntity
  8
0
  6
CONTINUOUS
 62
     7
100
AcDbCircle
 10
3.3816899696
 20
7.0168556231
 30
0.0
 40
0.0150000000000006
100
AcDbArc
 50
270.0
 51
0.0
  0
ARC
  5
FF
330
1F
100
AcDbEntity
  8
0
  6
CONTINUOUS
 62
     7
100
AcDbCircle
 10
3.3816899696
 20
7.1738556231
 30
0.0
 40
0.0149999999999997
100
AcDbArc
 50
0.0
 51
90.0
  0
ARC
  5
100
330
1F
100
AcDbEntity
  8
0
  6
CONTINUOUS
 62
     7
100
AcDbCircle
 10
3.0376899696
 20
7.0738556231
 30
0.0
 40
0.0150000000000015
100
AcDbArc
 50
180.0
 51
270.0
  0
ARC
  5
101
330
1F
100
AcDbEntity
  8
0
  6
CONTINUOUS
 62
     7
100
AcDbCircle
 10
3.0376899696
 20
7.1738556231
 30
0.0
 40
0.0149999999999997
100
AcDbArc
 50
90.0
 51
180.0
  0
ARC
  5
102
330
1F
100
AcDbEntity
  8
0
  6
CONTINUOUS
 62
     7
100
AcDbCircle
 10
3.0996899696
 20
7.1118556231
 30
0.0
 40
0.0150000000000001
100
AcDbArc
 50
90.0
 51
180.0
  0
ARC
  5
103
330
1F
100
AcDbEntity
  8
0
  6
CONTINUOUS
 62
     7
100
AcDbCircle
 10
3.2981899696
 20
7.0958556231
 30
0.0
 40
0.0310000000000006
100
AcDbArc
 50
0.0
 51
90.0
  0
LINE
  5
104
330
1F
100
AcDbEntity
  8
0
  6
CONTINUOUS
 62
     7
100
AcDbLine
 10
3.3291899696
 20
7.0958556231
 30
0.0
 11
3.3291899696
 21
6.8638556231
 31
0.0
  0
ARC
  5
105
330
1F
100
AcDbEntity
  8
0
  6
CONTINUOUS
 62
     7
100
AcDbCircle
 10
3.3911899696
 20
6.8638556231
 30
0.0
 40
0.0619999999999998
100
AcDbArc
 50
180.0
 51
270.0
  0
LINE
  5
106
330
1F
100
AcDbEntity
  8
0
  6
CONTINUOUS
 62
     7
100
AcDbLine
 10
3.3911899696
 20
6.8018556231
 30
0.0
 11
7.4041899696
 21
6.8018556231
 31
0.0
  0
ARC
  5
107
330
1F
100
AcDbEntity
  8
0
  6
CONTINUOUS
 62
     7
100
AcDbCircle
 10
7.4041899696
 20
6.8638556231
 30
0.0
 40
0.0620000000000012
100
AcDbArc
 50
270.0
 51
0.0
  0
LINE
  5
108
330
1F
100
AcDbEntity
  8
0
  6
CONTINUOUS
 62
     7
100
AcDbLine
 10
7.4661899696
 20
6.8638556231
 30
0.0
 11
7.4661899696
 21
7.0958556231
 31
0.0
  0
ARC
  5
109
330
1F
100
AcDbEntity
  8
0
  6
CONTINUOUS
 62
     7
100
AcDbCircle
 10
7.4971899696
 20
7.0958556231
 30
0.0
 40
0.0309999999999997
100
AcDbArc
 50
90.0
 51
180.0
  0
ARC
  5
10A
330
1F
100
AcDbEntity
  8
0
  6
CONTINUOUS
 62
     7
100
AcDbCircle
 10
7.5451899696
 20
7.0958556231
 30
0.0
 40
0.0310000000000006
100
AcDbArc
 50
0.0
 51
90.0
  0
LINE
  5
10B
330
1F
100
AcDbEntity
  8
0
  6
CONTINUOUS
 62
     7
100
AcDbLine
 10
7.5761899696
 20
6.7228556231
 30
0.0
 11
7.5761899696
 21
7.0958556231
 31
0.0
  0
ARC
  5
10C
330
1F
100
AcDbEntity
  8
0
  6
CONTINUOUS
 62
     7
100
AcDbCircle
 10
7.5451899696
 20
6.7228556231
 30
0.0
 40
0.0310000000000006
100
AcDbArc
 50
270.0
 51
0.0
  0
LINE
  5
10D
330
1F
100
AcDbEntity
  8
0
  6
CONTINUOUS
 62
     7
100
AcDbLine
 10
7.5451899696
 20
6.6918556231
 30
0.0
 11
6.6278696981
 21
6.6918556231
 31
0.0
  0
LINE
  5
10E
330
1F
100
AcDbEntity
  8
0
  6
CONTINUOUS
 62
     7
100
AcDbLine
 10
6.4625102411
 20
6.6918556231
 30
0.0
 11
4.3328696981
 21
6.6918556231
 31
0.0
  0
LINE
  5
10F
330
1F
100
AcDbEntity
  8
0
  6
CONTINUOUS
 62
     7
100
AcDbLine
 10
4.1675102411
 20
6.6918556231
 30
0.0
 11
3.2501899696
 21
6.6918556231
 31
0.0
  0
ARC
  5
110
330
1F
100
AcDbEntity
  8
0
  6
CONTINUOUS
 62
     7
100
AcDbCircle
 10
3.2501899696
 20
7.0958556231
 30
0.0
 40
0.0310000000000001
100
AcDbArc
 50
90.0
 51
180.0
  0
LINE
  5
111
330
1F
100
AcDbEntity
  8
0
  6
CONTINUOUS
 62
     7
100
AcDbLine
 10
3.2191899696
 20
6.7228556231
 30
0.0
 11
3.2191899696
 21
7.0958556231
 31
0.0
  0
ARC
  5
112
330
1F
100
AcDbEntity
  8
0
  6
CONTINUOUS
 62
     7
100
AcDbCircle
 10
3.2501899696
 20
6.7228556231
 30
0.0
 40
0.0310000000000006
100
AcDbArc
 50
180.0
 51
270.0
  0
LINE
  5
113
330
1F
100
AcDbEntity
  8
0
  6
CONTINUOUS
 62
     7
100
AcDbLine
 10
3.2191899696
 20
6.4446056231
 30
0.0
 11
3.2191899696
 21
6.3536056231
 31
0.0
  0
ARC
  5
114
330
1F
100
AcDbEntity
  8
0
  6
CONTINUOUS
 62
     7
100
AcDbCircle
 10
3.2501899696
 20
6.4446056231
 30
0.0
 40
0.0310000000000001
100
AcDbArc
 50
90.0
 51
180.0
  0
LINE
  5
115
330
1F
100
AcDbEntity
  8
0
  6
CONTINUOUS
 62
     7
100
AcDbLine
 10
3.2501899696
 20
6.4756056231
 30
0.0
 11
4.2429472674
 21
6.4756056231
 31
0.0
  0
LINE
  5
116
330
1F
100
AcDbEntity
  8
0
  6
CONTINUOUS
 62
     7
100
AcDbLine
 10
4.2750646555
 20
6.4756056231
 30
0.0
 11
4.307349552
 21
6.4756056231
 31
0.0
  0
LINE
  5
117
330
1F
100
AcDbEntity
  8
0
  6
CONTINUOUS
 62
     7
100
AcDbLine
 10
4.3751899696
 20
6.4756056231
 30
0.0
 11
6.4201899696
 21
6.4756056231
 31
0.0
  0
LINE
  5
118
330
1F
100
AcDbEntity
  8
0
  6
CONTINUOUS
 62
     7
100
AcDbLine
 10
6.4880303872
 20
6.4756056231
 30
0.0
 11
6.5203152837
 21
6.4756056231
 31
0.0
  0
LINE
  5
119
330
1F
100
AcDbEntity
  8
0
  6
CONTINUOUS
 62
     7
100
AcDbLine
 10
6.5524326718
 20
6.4756056231
 30
0.0
 11
7.5451899696
 21
6.4756056231
 31
0.0
  0
ARC
  5
11A
330
1F
100
AcDbEntity
  8
0
  6
CONTINUOUS
 62
     7
100
AcDbCircle
 10
7.5451899696
 20
6.4446056231
 30
0.0
 40
0.0310000000000006
100
AcDbArc
 50
360.0
 51
90.0
  0
LINE
  5
11B
330
1F
100
AcDbEntity
  8
0
  6
CONTINUOUS
 62
     7
100
AcDbLine
 10
7.5761899696
 20
6.4446056231
 30
0.0
 11
7.5761899696
 21
6.3536056231
 31
0.0
  0
ARC
  5
11C
330
1F
100
AcDbEntity
  8
0
  6
CONTINUOUS
 62
     7
100
AcDbCircle
 10
7.4041899696
 20
6.3036056231
 30
0.0
 40
0.0620000000000003
100
AcDbArc
 50
0.0
 51
90.0
  0
LINE
  5
11D
330
1F
100
AcDbEntity
  8
0
  6
CONTINUOUS
 62
     7
100
AcDbLine
 10
7.4041899696
 20
6.3656056231
 30
0.0
 11
6.4836899696
 21
6.3656056231
 31
0.0
  0
LINE
  5
11E
330
1F
100
AcDbEntity
  8
0
  6
CONTINUOUS
 62
     7
100
AcDbLine
 10
6.4201899696
 20
6.3656056231
 30
0.0
 11
4.3751899696
 21
6.3656056231
 31
0.0
  0
LINE
  5
11F
330
1F
100
AcDbEntity
  8
0
  6
CONTINUOUS
 62
     7
100
AcDbLine
 10
4.3116899696
 20
6.3656056231
 30
0.0
 11
3.3911899696
 21
6.3656056231
 31
0.0
  0
ARC
  5
120
330
1F
100
AcDbEntity
  8
0
  6
CONTINUOUS
 62
     7
100
AcDbCircle
 10
3.3911899696
 20
6.3036056231
 30
0.0
 40
0.0620000000000003
100
AcDbArc
 50
90.0
 51
180.0
  0
ARC
  5
121
330
1F
100
AcDbEntity
  8
0
  6
CONTINUOUS
 62
     7
100
AcDbCircle
 10
4.2501899696
 20
6.5981056231
 30
0.0
 40
0.1250000000000026
100
AcDbArc
 50
272.955708677
 51
288.825987749
  0
ARC
  5
122
330
1F
100
AcDbEntity
  8
0
  6
CONTINUOUS
 62
     7
100
AcDbCircle
 10
4.2549983099
 20
6.5049796742
 30
0.0
 40
0.0317500000000004
100
AcDbArc
 50
92.955708677
 51
272.955708677
  0
ARC
  5
123
330
1F
100
AcDbEntity
  8
0
  6
CONTINUOUS
 62
     7
100
AcDbCircle
 10
4.2501899696
 20
6.5981056231
 30
0.0
 40
0.0615000000000018
100
AcDbArc
 50
272.955708677
 51
177.044291323
  0
ARC
  5
124
330
1F
100
AcDbEntity
  8
0
  6
CONTINUOUS
 62
     7
100
AcDbCircle
 10
4.1570640207
 20
6.6029139634
 30
0.0
 40
0.0317500000000004
100
AcDbArc
 50
177.044291323
 51
357.044291323
  0
ARC
  5
125
330
1F
100
AcDbEntity
  8
0
  6
CONTINUOUS
 62
     7
100
AcDbCircle
 10
4.2501899696
 20
6.5981056231
 30
0.0
 40
0.1250000000000007
100
AcDbArc
 50
0.0
 51
177.044291323
  0
LINE
  5
126
330
1F
100
AcDbEntity
  8
0
  6
CONTINUOUS
 62
     7
100
AcDbLine
 10
4.3751899696
 20
5.6111056231
 30
0.0
 11
4.3751899696
 21
6.5981056231
 31
0.0
  0
LINE
  5
127
330
1F
100
AcDbEntity
  8
0
  6
CONTINUOUS
 62
     7
100
AcDbLine
 10
4.3116899696
 20
5.6111056231
 30
0.0
 11
4.3751899696
 21
5.6111056231
 31
0.0
  0
LINE
  5
128
330
1F
100
AcDbEntity
  8
0
  6
CONTINUOUS
 62
     7
100
AcDbLine
 10
4.3116899696
 20
6.4646487012
 30
0.0
 11
4.3116899696
 21
5.6111056231
 31
0.0
  0
ARC
  5
129
330
1F
100
AcDbEntity
  8
0
  6
CONTINUOUS
 62
     7
100
AcDbCircle
 10
4.2956899696
 20
6.4646487012
 30
0.0
 40
0.0160000000000009
100
AcDbArc
 50
0.0
 51
108.825987749
  0
LINE
  5
12A
330
1F
100
AcDbEntity
  8
0
  6
CONTINUOUS
 62
     7
100
AcDbLine
 10
6.4836899696
 20
6.4646487012
 30
0.0
 11
6.4836899696
 21
4.9891056231
 31
0.0
  0
LINE
  5
12B
330
1F
100
AcDbEntity
  8
0
  6
CONTINUOUS
 62
     7
100
AcDbLine
 10
6.4836899696
 20
4.9891056231
 30
0.0
 11
6.4201899696
 21
4.9891056231
 31
0.0
  0
LINE
  5
12C
330
1F
100
AcDbEntity
  8
0
  6
CONTINUOUS
 62
     7
100
AcDbLine
 10
6.4201899696
 20
4.9891056231
 30
0.0
 11
6.4201899696
 21
6.5981056231
 31
0.0
  0
ARC
  5
12D
330
1F
100
AcDbEntity
  8
0
  6
CONTINUOUS
 62
     7
100
AcDbCircle
 10
6.5451899696
 20
6.5981056231
 30
0.0
 40
0.125
100
AcDbArc
 50
2.955708677
 51
180.0
  0
ARC
  5
12E
330
1F
100
AcDbEntity
  8
0
  6
CONTINUOUS
 62
     7
100
AcDbCircle
 10
6.5451899696
 20
6.5981056231
 30
0.0
 40
0.061500000000001
100
AcDbArc
 50
2.955708677
 51
267.044291323
  0
ARC
  5
12F
330
1F
100
AcDbEntity
  8
0
  6
CONTINUOUS
 62
     7
100
AcDbCircle
 10
6.5403816293
 20
6.5049796742
 30
0.0
 40
0.0317500000000004
100
AcDbArc
 50
267.044291323
 51
87.044291323
  0
ARC
  5
130
330
1F
100
AcDbEntity
  8
0
  6
CONTINUOUS
 62
     7
100
AcDbCircle
 10
6.5451899696
 20
6.5981056231
 30
0.0
 40
0.1250000000000007
100
AcDbArc
 50
251.174012251
 51
267.044291323
  0
ARC
  5
131
330
1F
100
AcDbEntity
  8
0
  6
CONTINUOUS
 62
     7
100
AcDbCircle
 10
6.4996899696
 20
6.4646487012
 30
0.0
 40
0.016
100
AcDbArc
 50
71.174012251
 51
180.0
  0
ARC
  5
132
330
1F
100
AcDbEntity
  8
0
  6
CONTINUOUS
 62
     7
100
AcDbCircle
 10
6.6383159185
 20
6.6029139634
 30
0.0
 40
0.0317500000000003
100
AcDbArc
 50
182.955708677
 51
2.955708677
  0
CIRCLE
  5
133
330
1F
100
AcDbEntity
  8
0
  6
CONTINUOUS
 62
     7
100
AcDbCircle
 10
6.5451899696
 20
6.5981056231
 30
0.0
 40
0.0175000000000007
  0
ARC
  5
134
330
1F
100
AcDbEntity
  8
0
  6
CONTINUOUS
 62
     7
100
AcDbCircle
 10
6.5451899696
 20
6.5981056231
 30
0.0
 40
0.061500000000001
100
AcDbArc
 50
267.044291323
 51
2.955708677
  0
CIRCLE
  5
135
330
1F
100
AcDbEntity
  8
0
  6
CONTINUOUS
 62
     7
100
AcDbCircle
 10
4.2501899696
 20
6.5981056231
 30
0.0
 40
0.0175
  0
LWPOLYLINE
  5
136
330
1F
100
AcDbEntity
  8
0
  6
CONTINUOUS
 62
     7
100
AcDbPolyline
 90
        3
 70
   128
 43
0.0
 10
4.2010567151
 20
6.5611167964
 10
4.1906417502
 20
6.5827348856
 10
4.1887717834
 20
6.6012768073
  0
ARC
  5
137
330
1F
100
AcDbEntity
  8
0
  6
CONTINUOUS
 62
     7
100
AcDbCircle
 10
4.2501899696
 20
6.5981056231
 30
0.0
 40
0.0615000000002205
100
AcDbArc
 50
216.9734108582
 51
272.955708677
  0
LINE
  5
138
330
1F
100
AcDbEntity
  8
0
  6
CONTINUOUS
 62
     7
100
AcDbLine
 10
3.2151899696
 20
6.3429940423
 30
0.0
 11
3.3291899696
 21
6.3429940423
 31
0.0
  0
LINE
  5
139
330
1F
100
AcDbEntity
  8
0
  6
CONTINUOUS
 62
     7
100
AcDbLine
 10
3.2151899696
 20
6.3536056231
 30
0.0
 11
3.3291899696
 21
6.3536056231
 31
0.0
  0
LINE
  5
13A
330
1F
100
AcDbEntity
  8
0
  6
CONTINUOUS
 62
     7
100
AcDbLine
 10
3.3291899696
 20
6.3429940423
 30
0.0
 11
3.3291899696
 21
6.3536056231
 31
0.0
  0
LINE
  5
13B
330
1F
100
AcDbEntity
  8
0
  6
CONTINUOUS
 62
     7
100
AcDbLine
 10
3.2151899696
 20
6.3429940423
 30
0.0
 11
3.2151899696
 21
6.3536056231
 31
0.0
  0
LINE
  5
13C
330
1F
100
AcDbEntity
  8
0
  6
CONTINUOUS
 62
     7
100
AcDbLine
 10
3.3291899696
 20
5.9803475664
 30
0.0
 11
3.3291899696
 21
6.3429940423
 31
0.0
  0
LINE
  5
13D
330
1F
100
AcDbEntity
  8
0
  6
CONTINUOUS
 62
     7
100
AcDbLine
 10
3.2151899696
 20
5.9803475664
 30
0.0
 11
3.2151899696
 21
6.3429940423
 31
0.0
  0
LINE
  5
13E
330
1F
100
AcDbEntity
  8
0
  6
CONTINUOUS
 62
     7
100
AcDbLine
 10
3.3291899696
 20
5.8536056231
 30
0.0
 11
3.3291899696
 21
5.9803475664
 31
0.0
  0
LINE
  5
13F
330
1F
100
AcDbEntity
  8
0
  6
CONTINUOUS
 62
     7
100
AcDbLine
 10
3.2151899696
 20
5.8536056231
 30
0.0
 11
3.2151899696
 21
5.9803475664
 31
0.0
  0
LINE
  5
140
330
1F
100
AcDbEntity
  8
0
  6
CONTINUOUS
 62
     7
100
AcDbLine
 10
7.4661899696
 20
6.3429940423
 30
0.0
 11
7.5801899696
 21
6.3429940423
 31
0.0
  0
LINE
  5
141
330
1F
100
AcDbEntity
  8
0
  6
CONTINUOUS
 62
     7
100
AcDbLine
 10
7.4661899696
 20
6.3429940423
 30
0.0
 11
7.4661899696
 21
6.3536056231
 31
0.0
  0
LINE
  5
142
330
1F
100
AcDbEntity
  8
0
  6
CONTINUOUS
 62
     7
100
AcDbLine
 10
7.4661899696
 20
6.3536056231
 30
0.0
 11
7.5801899696
 21
6.3536056231
 31
0.0
  0
LINE
  5
143
330
1F
100
AcDbEntity
  8
0
  6
CONTINUOUS
 62
     7
100
AcDbLine
 10
7.5801899696
 20
6.3429940423
 30
0.0
 11
7.5801899696
 21
6.3536056231
 31
0.0
  0
LINE
  5
144
330
1F
100
AcDbEntity
  8
0
  6
CONTINUOUS
 62
     7
100
AcDbLine
 10
7.4661899696
 20
5.9803475664
 30
0.0
 11
7.4661899696
 21
6.3429940423
 31
0.0
  0
LINE
  5
145
330
1F
100
AcDbEntity
  8
0
  6
CONTINUOUS
 62
     7
100
AcDbLine
 10
7.5801899696
 20
5.9803475664
 30
0.0
 11
7.5801899696
 21
6.3429940423
 31
0.0
  0
LINE
  5
146
330
1F
100
AcDbEntity
  8
0
  6
CONTINUOUS
 62
     7
100
AcDbLine
 10
7.5801899696
 20
5.8536056231
 30
0.0
 11
7.5801899696
 21
5.9803475664
 31
0.0
  0
LINE
  5
147
330
1F
100
AcDbEntity
  8
0
  6
CONTINUOUS
 62
     7
100
AcDbLine
 10
7.4661899696
 20
5.8536056231
 30
0.0
 11
7.4661899696
 21
5.9803475664
 31
0.0
  0
LINE
  5
148
330
1F
100
AcDbEntity
  8
0
  6
CONTINUOUS
 62
     7
100
AcDbLine
 10
4.6251899696
 20
6.4756056231
 30
0.0
 11
4.3751899696
 21
6.4756056231
 31
0.0
  0
LINE
  5
149
330
1F
100
AcDbEntity
  8
0
  6
CONTINUOUS
 62
     7
100
AcDbLine
 10
4.307349552
 20
6.4756056231
 30
0.0
 11
4.2750646555
 21
6.4756056231
 31
0.0
  0
LINE
  5
14A
330
1F
100
AcDbEntity
  8
0
  6
CONTINUOUS
 62
     7
100
AcDbLine
 10
4.2429472674
 20
6.4756056231
 30
0.0
 11
3.8751899696
 21
6.4756056231
 31
0.0
  0
LINE
  5
14B
330
1F
100
AcDbEntity
  8
0
  6
CONTINUOUS
 62
     7
100
AcDbLine
 10
3.8751899696
 20
6.4756056231
 30
0.0
 11
3.8751899696
 21
6.5056056231
 31
0.0
  0
LINE
  5
14C
330
1F
100
AcDbEntity
  8
0
  6
CONTINUOUS
 62
     7
100
AcDbLine
 10
4.6251899696
 20
6.5056056231
 30
0.0
 11
4.6251899696
 21
6.4756056231
 31
0.0
  0
LINE
  5
14D
330
1F
100
AcDbEntity
  8
0
  6
CONTINUOUS
 62
     7
100
AcDbLine
 10
3.8751899696
 20
6.5056056231
 30
0.0
 11
4.2232544807
 21
6.5056056231
 31
0.0
  0
LINE
  5
14E
330
1F
100
AcDbEntity
  8
0
  6
CONTINUOUS
 62
     7
100
AcDbLine
 10
4.3751899696
 20
6.5056056231
 30
0.0
 11
4.6251899696
 21
6.5056056231
 31
0.0
  0
LINE
  5
14F
330
1F
100
AcDbEntity
  8
0
  6
CONTINUOUS
 62
     7
100
AcDbLine
 10
6.9201899696
 20
6.4756056231
 30
0.0
 11
6.9201899696
 21
6.5056056231
 31
0.0
  0
LINE
  5
150
330
1F
100
AcDbEntity
  8
0
  6
CONTINUOUS
 62
     7
100
AcDbLine
 10
6.1701899696
 20
6.4756056231
 30
0.0
 11
6.4201899696
 21
6.4756056231
 31
0.0
  0
LINE
  5
151
330
1F
100
AcDbEntity
  8
0
  6
CONTINUOUS
 62
     7
100
AcDbLine
 10
6.4880303872
 20
6.4756056231
 30
0.0
 11
6.5203152837
 21
6.4756056231
 31
0.0
  0
LINE
  5
152
330
1F
100
AcDbEntity
  8
0
  6
CONTINUOUS
 62
     7
100
AcDbLine
 10
6.5524326718
 20
6.4756056231
 30
0.0
 11
6.9201899696
 21
6.4756056231
 31
0.0
  0
LINE
  5
153
330
1F
100
AcDbEntity
  8
0
  6
CONTINUOUS
 62
     7
100
AcDbLine
 10
6.1701899696
 20
6.5056056231
 30
0.0
 11
6.1701899696
 21
6.4756056231
 31
0.0
  0
LINE
  5
154
330
1F
100
AcDbEntity
  8
0
  6
CONTINUOUS
 62
     7
100
AcDbLine
 10
6.9201899696
 20
6.5056056231
 30
0.0
 11
6.5721254585
 21
6.5056056231
 31
0.0
  0
LINE
  5
155
330
1F
100
AcDbEntity
  8
0
  6
CONTINUOUS
 62
     7
100
AcDbLine
 10
6.4201899696
 20
6.5056056231
 30
0.0
 11
6.1701899696
 21
6.5056056231
 31
0.0
  0
LINE
  5
156
330
1F
100
AcDbEntity
  8
0
  6
CONTINUOUS
 62
     7
100
AcDbLine
 10
6.4201899696
 20
6.5356056231
 30
0.0
 11
6.1701899696
 21
6.5356056231
 31
0.0
  0
LINE
  5
157
330
1F
100
AcDbEntity
  8
0
  6
CONTINUOUS
 62
     7
100
AcDbLine
 10
6.6518733496
 20
6.6918556231
 30
0.0
 11
6.6398081311
 21
6.6797904046
 31
0.0
  0
LINE
  5
158
330
1F
100
AcDbEntity
  8
0
  6
CONTINUOUS
 62
     7
100
AcDbLine
 10
6.673086553
 20
6.6706424197
 30
0.0
 11
6.6518733496
 21
6.6918556231
 31
0.0
  0
LINE
  5
159
330
1F
100
AcDbEntity
  8
0
  6
CONTINUOUS
 62
     7
100
AcDbLine
 10
6.6568122451
 20
6.6543681117
 30
0.0
 11
6.673086553
 21
6.6706424197
 31
0.0
  0
LINE
  5
15A
330
1F
100
AcDbEntity
  8
0
  6
CONTINUOUS
 62
     7
100
AcDbLine
 10
6.9201899696
 20
6.5356056231
 30
0.0
 11
6.5487550248
 21
6.5356056231
 31
0.0
  0
LINE
  5
15B
330
1F
100
AcDbEntity
  8
0
  6
CONTINUOUS
 62
     7
100
AcDbLine
 10
6.9201899696
 20
6.5056056231
 30
0.0
 11
6.9201899696
 21
6.5356056231
 31
0.0
  0
LINE
  5
15C
330
1F
100
AcDbEntity
  8
0
  6
CONTINUOUS
 62
     7
100
AcDbLine
 10
6.1701899696
 20
6.5056056231
 30
0.0
 11
6.4201899696
 21
6.5056056231
 31
0.0
  0
LINE
  5
15D
330
1F
100
AcDbEntity
  8
0
  6
CONTINUOUS
 62
     7
100
AcDbLine
 10
6.5721254585
 20
6.5056056231
 30
0.0
 11
6.9201899696
 21
6.5056056231
 31
0.0
  0
LINE
  5
15E
330
1F
100
AcDbEntity
  8
0
  6
CONTINUOUS
 62
     7
100
AcDbLine
 10
6.1701899696
 20
6.5356056231
 30
0.0
 11
6.1701899696
 21
6.5056056231
 31
0.0
  0
LINE
  5
15F
330
1F
100
AcDbEntity
  8
0
  6
CONTINUOUS
 62
     7
100
AcDbLine
 10
4.6251899696
 20
6.5056056231
 30
0.0
 11
4.3751899696
 21
6.5056056231
 31
0.0
  0
LINE
  5
160
330
1F
100
AcDbEntity
  8
0
  6
CONTINUOUS
 62
     7
100
AcDbLine
 10
4.2232544807
 20
6.5056056231
 30
0.0
 11
3.8751899696
 21
6.5056056231
 31
0.0
  0
LINE
  5
161
330
1F
100
AcDbEntity
  8
0
  6
CONTINUOUS
 62
     7
100
AcDbLine
 10
3.8751899696
 20
6.5356056231
 30
0.0
 11
4.2466249144
 21
6.5356056231
 31
0.0
  0
LINE
  5
162
330
1F
100
AcDbEntity
  8
0
  6
CONTINUOUS
 62
     7
100
AcDbLine
 10
4.1385676942
 20
6.6543681117
 30
0.0
 11
4.1222933862
 21
6.6706424197
 31
0.0
  0
LINE
  5
163
330
1F
100
AcDbEntity
  8
0
  6
CONTINUOUS
 62
     7
100
AcDbLine
 10
4.1222933862
 20
6.6706424197
 30
0.0
 11
4.1435065896
 21
6.6918556231
 31
0.0
  0
LINE
  5
164
330
1F
100
AcDbEntity
  8
0
  6
CONTINUOUS
 62
     7
100
AcDbLine
 10
4.3751899696
 20
6.5356056231
 30
0.0
 11
4.6251899696
 21
6.5356056231
 31
0.0
  0
LINE
  5
165
330
1F
100
AcDbEntity
  8
0
  6
CONTINUOUS
 62
     7
100
AcDbLine
 10
4.6251899696
 20
6.5356056231
 30
0.0
 11
4.6251899696
 21
6.5056056231
 31
0.0
  0
LINE
  5
166
330
1F
100
AcDbEntity
  8
0
  6
CONTINUOUS
 62
     7
100
AcDbLine
 10
3.8751899696
 20
6.5056056231
 30
0.0
 11
3.8751899696
 21
6.5356056231
 31
0.0
  0
LINE
  5
167
330
1F
100
AcDbEntity
  8
0
  6
CONTINUOUS
 62
     7
100
AcDbLine
 10
4.1435065896
 20
6.6918556231
 30
0.0
 11
4.1555718081
 21
6.6797904046
 31
0.0
  0
LINE
  5
168
330
1F
100
AcDbEntity
  8
0
  6
CONTINUOUS
 62
     7
100
AcDbLine
 10
3.2151899696
 20
5.9803475664
 30
0.0
 11
3.3291899696
 21
5.9803475664
 31
0.0
  0
LINE
  5
169
330
1F
100
AcDbEntity
  8
0
  6
CONTINUOUS
 62
     7
100
AcDbLine
 10
7.4661899696
 20
5.9803475664
 30
0.0
 11
7.5801899696
 21
5.9803475664
 31
0.0
  0
INSERT
  5
171
330
1F
100
AcDbEntity
  8
FORMAT
100
AcDbBlockReference
  2
SW_NOTE_48
 10
5.2277305838
 20
5.9129044236
 30
0.0
  0
SPLINE
  5
172
330
1F
100
AcDbEntity
  8
0
  6
CONTINUOUS
 62
     7
100
AcDbSpline
210
0.0
220
0.0
230
1.0
 70
    24
 71
     1
 72
     4
 73
     2
 74
     0
 42
0.00000001
 43
0.00000001
 40
0.0
 40
0.0
 40
1.0
 40
1.0
 10
7.46618996960485
 20
2.829775835866485
 30
0.0
 10
7.58018996960485
 20
2.829775835866485
 30
0.0
  0
SPLINE
  5
173
330
1F
100
AcDbEntity
  8
0
  6
CONTINUOUS
 62
     7
100
AcDbSpline
210
0.0
220
0.0
230
1.0
 70
    24
 71
     1
 72
     4
 73
     2
 74
     0
 42
0.00000001
 43
0.00000001
 40
0.0
 40
0.0
 40
1.0
 40
1.0
 10
3.215189969604848
 20
2.829775835866484
 30
0.0
 10
3.329189969604848
 20
2.829775835866484
 30
0.0
  0
ARC
  5
174
330
1F
100
AcDbEntity
  8
0
  6
CONTINUOUS
 62
     7
100
AcDbCircle
 10
3.0376899696
 20
2.8440258359
 30
0.0
 40
0.015000000000001
100
AcDbArc
 50
90.0
 51
180.0
  0
ARC
  5
175
330
1F
100
AcDbEntity
  8
0
  6
CONTINUOUS
 62
     7
100
AcDbCircle
 10
3.0696899696
 20
2.8440258359
 30
0.0
 40
0.015000000000001
100
AcDbArc
 50
0.0
 51
90.0
  0
ARC
  5
176
330
1F
100
AcDbEntity
  8
0
  6
CONTINUOUS
 62
     7
100
AcDbCircle
 10
3.0996899696
 20
2.8060258359
 30
0.0
 40
0.0150000000000006
100
AcDbArc
 50
180.0
 51
270.0
  0
ARC
  5
177
330
1F
100
AcDbEntity
  8
0
  6
CONTINUOUS
 62
     7
100
AcDbCircle
 10
3.1326899696
 20
2.8060258359
 30
0.0
 40
0.0149999999999988
100
AcDbArc
 50
270.0
 51
0.0
  0
ARC
  5
178
330
1F
100
AcDbEntity
  8
0
  6
CONTINUOUS
 62
     7
100
AcDbCircle
 10
3.1326899696
 20
3.4010258359
 30
0.0
 40
0.0149999999999988
100
AcDbArc
 50
0.0
 51
90.0
  0
ARC
  5
179
330
1F
100
AcDbEntity
  8
0
  6
CONTINUOUS
 62
     7
100
AcDbCircle
 10
3.0996899696
 20
3.4010258359
 30
0.0
 40
0.0150000000000006
100
AcDbArc
 50
90.0
 51
180.0
  0
ARC
  5
17A
330
1F
100
AcDbEntity
  8
0
  6
CONTINUOUS
 62
     7
100
AcDbCircle
 10
3.0696899696
 20
3.3630258359
 30
0.0
 40
0.0150000000000006
100
AcDbArc
 50
270.0
 51
0.0
  0
ARC
  5
17B
330
1F
100
AcDbEntity
  8
0
  6
CONTINUOUS
 62
     7
100
AcDbCircle
 10
3.0376899696
 20
3.3630258359
 30
0.0
 40
0.0150000000000006
100
AcDbArc
 50
180.0
 51
270.0
  0
ARC
  5
17C
330
1F
100
AcDbEntity
  8
0
  6
CONTINUOUS
 62
     7
100
AcDbCircle
 10
3.0376899696
 20
3.5310258359
 30
0.0
 40
0.015000000000001
100
AcDbArc
 50
90.0
 51
180.0
  0
ARC
  5
17D
330
1F
100
AcDbEntity
  8
0
  6
CONTINUOUS
 62
     7
100
AcDbCircle
 10
3.0696899696
 20
3.5310258359
 30
0.0
 40
0.015000000000001
100
AcDbArc
 50
0.0
 51
90.0
  0
ARC
  5
17E
330
1F
100
AcDbEntity
  8
0
  6
CONTINUOUS
 62
     7
100
AcDbCircle
 10
3.0996899696
 20
3.4930258359
 30
0.0
 40
0.015000000000001
100
AcDbArc
 50
180.0
 51
270.0
  0
ARC
  5
17F
330
1F
100
AcDbEntity
  8
0
  6
CONTINUOUS
 62
     7
100
AcDbCircle
 10
3.1326899696
 20
3.4930258359
 30
0.0
 40
0.015000000000001
100
AcDbArc
 50
270.0
 51
0.0
  0
ARC
  5
180
330
1F
100
AcDbEntity
  8
0
  6
CONTINUOUS
 62
     7
100
AcDbCircle
 10
3.1326899696
 20
4.0880258359
 30
0.0
 40
0.0150000000000006
100
AcDbArc
 50
0.0
 51
90.0
  0
ARC
  5
181
330
1F
100
AcDbEntity
  8
0
  6
CONTINUOUS
 62
     7
100
AcDbCircle
 10
3.0996899696
 20
4.0880258359
 30
0.0
 40
0.0150000000000006
100
AcDbArc
 50
90.0
 51
180.0
  0
ARC
  5
182
330
1F
100
AcDbEntity
  8
0
  6
CONTINUOUS
 62
     7
100
AcDbCircle
 10
3.0696899696
 20
4.0500258359
 30
0.0
 40
0.0149999999999988
100
AcDbArc
 50
270.0
 51
0.0
  0
ARC
  5
183
330
1F
100
AcDbEntity
  8
0
  6
CONTINUOUS
 62
     7
100
AcDbCircle
 10
3.0376899696
 20
4.0500258359
 30
0.0
 40
0.0150000000000006
100
AcDbArc
 50
180.0
 51
270.0
  0
ARC
  5
184
330
1F
100
AcDbEntity
  8
0
  6
CONTINUOUS
 62
     7
100
AcDbCircle
 10
3.0376899696
 20
4.1500258359
 30
0.0
 40
0.0150000000000006
100
AcDbArc
 50
90.0
 51
180.0
  0
ARC
  5
185
330
1F
100
AcDbEntity
  8
0
  6
CONTINUOUS
 62
     7
100
AcDbCircle
 10
3.3816899696
 20
4.1500258359
 30
0.0
 40
0.0150000000000006
100
AcDbArc
 50
0.0
 51
90.0
  0
ARC
  5
186
330
1F
100
AcDbEntity
  8
0
  6
CONTINUOUS
 62
     7
100
AcDbCircle
 10
3.3816899696
 20
3.9930258359
 30
0.0
 40
0.0150000000000006
100
AcDbArc
 50
270.0
 51
0.0
  0
ARC
  5
187
330
1F
100
AcDbEntity
  8
0
  6
CONTINUOUS
 62
     7
100
AcDbCircle
 10
3.3196899696
 20
4.0880258359
 30
0.0
 40
0.015000000000001
100
AcDbArc
 50
0.0
 51
90.0
  0
ARC
  5
188
330
1F
100
AcDbEntity
  8
0
  6
CONTINUOUS
 62
     7
100
AcDbCircle
 10
3.2246899696
 20
4.0880258359
 30
0.0
 40
0.015000000000001
100
AcDbArc
 50
90.0
 51
180.0
  0
ARC
  5
189
330
1F
100
AcDbEntity
  8
0
  6
CONTINUOUS
 62
     7
100
AcDbCircle
 10
3.2246899696
 20
2.8060258359
 30
0.0
 40
0.0149999999999988
100
AcDbArc
 50
180.0
 51
270.0
  0
ARC
  5
18A
330
1F
100
AcDbEntity
  8
0
  6
CONTINUOUS
 62
     7
100
AcDbCircle
 10
3.3196899696
 20
2.8060258359
 30
0.0
 40
0.015000000000001
100
AcDbArc
 50
270.0
 51
0.0
  0
ARC
  5
18B
330
1F
100
AcDbEntity
  8
0
  6
CONTINUOUS
 62
     7
100
AcDbCircle
 10
3.3496899696
 20
3.0880258359
 30
0.0
 40
0.0149999999999988
100
AcDbArc
 50
90.0
 51
180.0
  0
ARC
  5
18C
330
1F
100
AcDbEntity
  8
0
  6
CONTINUOUS
 62
     7
100
AcDbCircle
 10
3.3816899696
 20
3.0880258359
 30
0.0
 40
0.0150000000000006
100
AcDbArc
 50
0.0
 51
90.0
  0
ARC
  5
18D
330
1F
100
AcDbEntity
  8
0
  6
CONTINUOUS
 62
     7
100
AcDbCircle
 10
3.4116899696
 20
2.0432390393
 30
0.0
 40
0.015000000000001
100
AcDbArc
 50
180.0
 51
225.0
  0
ARC
  5
18E
330
1F
100
AcDbEntity
  8
0
  6
CONTINUOUS
 62
     7
100
AcDbCircle
 10
3.520903173
 20
1.9340258359
 30
0.0
 40
0.0150000000000008
100
AcDbArc
 50
225.0
 51
270.0
  0
ARC
  5
18F
330
1F
100
AcDbEntity
  8
0
  6
CONTINUOUS
 62
     7
100
AcDbCircle
 10
4.3816899696
 20
1.9040258359
 30
0.0
 40
0.0149999999999988
100
AcDbArc
 50
0.0
 51
90.0
  0
ARC
  5
190
330
1F
100
AcDbEntity
  8
0
  6
CONTINUOUS
 62
     7
100
AcDbCircle
 10
4.3816899696
 20
1.8720258359
 30
0.0
 40
0.0150000000000008
100
AcDbArc
 50
270.0
 51
0.0
  0
ARC
  5
191
330
1F
100
AcDbEntity
  8
0
  6
CONTINUOUS
 62
     7
100
AcDbCircle
 10
3.0376899696
 20
1.8720258359
 30
0.0
 40
0.0150000000000008
100
AcDbArc
 50
180.0
 51
270.0
  0
ARC
  5
192
330
1F
100
AcDbEntity
  8
0
  6
CONTINUOUS
 62
     7
100
AcDbCircle
 10
3.0376899696
 20
1.9670258359
 30
0.0
 40
0.0150000000000006
100
AcDbArc
 50
90.0
 51
180.0
  0
ARC
  5
193
330
1F
100
AcDbEntity
  8
0
  6
CONTINUOUS
 62
     7
100
AcDbCircle
 10
3.1296899696
 20
1.9670258359
 30
0.0
 40
0.0150000000000006
100
AcDbArc
 50
0.0
 51
90.0
  0
ARC
  5
194
330
1F
100
AcDbEntity
  8
0
  6
CONTINUOUS
 62
     7
100
AcDbCircle
 10
3.1596899696
 20
1.9340258359
 30
0.0
 40
0.0150000000000008
100
AcDbArc
 50
180.0
 51
270.0
  0
ARC
  5
195
330
1F
100
AcDbEntity
  8
0
  6
CONTINUOUS
 62
     7
100
AcDbCircle
 10
3.3787244575
 20
1.9390258359
 30
0.0
 40
0.0200000000000002
100
AcDbArc
 50
270.0
 51
45.0
  0
ARC
  5
196
330
1F
100
AcDbEntity
  8
0
  6
CONTINUOUS
 62
     7
100
AcDbCircle
 10
3.3196899696
 20
2.0890258359
 30
0.0
 40
0.015000000000001
100
AcDbArc
 50
0.0
 51
90.0
  0
ARC
  5
197
330
1F
100
AcDbEntity
  8
0
  6
CONTINUOUS
 62
     7
100
AcDbCircle
 10
3.0376899696
 20
2.1190258359
 30
0.0
 40
0.0150000000000006
100
AcDbArc
 50
180.0
 51
270.0
  0
ARC
  5
198
330
1F
100
AcDbEntity
  8
0
  6
CONTINUOUS
 62
     7
100
AcDbCircle
 10
3.0376899696
 20
2.1510258359
 30
0.0
 40
0.0150000000000006
100
AcDbArc
 50
90.0
 51
180.0
  0
ARC
  5
199
330
1F
100
AcDbEntity
  8
0
  6
CONTINUOUS
 62
     7
100
AcDbCircle
 10
3.3196899696
 20
2.1810258359
 30
0.0
 40
0.015000000000001
100
AcDbArc
 50
270.0
 51
0.0
  0
ARC
  5
19A
330
1F
100
AcDbEntity
  8
0
  6
CONTINUOUS
 62
     7
100
AcDbCircle
 10
3.3196899696
 20
2.7140258359
 30
0.0
 40
0.015000000000001
100
AcDbArc
 50
0.0
 51
90.0
  0
ARC
  5
19B
330
1F
100
AcDbEntity
  8
0
  6
CONTINUOUS
 62
     7
100
AcDbCircle
 10
3.0726899696
 20
2.7790258359
 30
0.0
 40
0.0499999999999998
100
AcDbArc
 50
180.0
 51
270.0
  0
LINE
  5
19C
330
1F
100
AcDbEntity
  8
0
  6
CONTINUOUS
 62
     7
100
AcDbLine
 10
3.3346899696
 20
4.0880258359
 30
0.0
 11
3.3346899696
 21
3.9780258359
 31
0.0
  0
LINE
  5
19D
330
1F
100
AcDbEntity
  8
0
  6
CONTINUOUS
 62
     7
100
AcDbLine
 10
3.2246899696
 20
4.1030258359
 30
0.0
 11
3.3196899696
 21
4.1030258359
 31
0.0
  0
LINE
  5
19E
330
1F
100
AcDbEntity
  8
0
  6
CONTINUOUS
 62
     7
100
AcDbLine
 10
3.2096899696
 20
2.8060258359
 30
0.0
 11
3.2096899696
 21
4.0880258359
 31
0.0
  0
LINE
  5
19F
330
1F
100
AcDbEntity
  8
0
  6
CONTINUOUS
 62
     7
100
AcDbLine
 10
3.3196899696
 20
2.7910258359
 30
0.0
 11
3.2246899696
 21
2.7910258359
 31
0.0
  0
LINE
  5
1A0
330
1F
100
AcDbEntity
  8
0
  6
CONTINUOUS
 62
     7
100
AcDbLine
 10
3.3346899696
 20
3.0880258359
 30
0.0
 11
3.3346899696
 21
2.8060258359
 31
0.0
  0
LINE
  5
1A1
330
1F
100
AcDbEntity
  8
0
  6
CONTINUOUS
 62
     7
100
AcDbLine
 10
3.3816899696
 20
3.1030258359
 30
0.0
 11
3.3496899696
 21
3.1030258359
 31
0.0
  0
LINE
  5
1A2
330
1F
100
AcDbEntity
  8
0
  6
CONTINUOUS
 62
     7
100
AcDbLine
 10
3.3966899696
 20
2.0432390393
 30
0.0
 11
3.3966899696
 21
3.0880258359
 31
0.0
  0
LINE
  5
1A3
330
1F
100
AcDbEntity
  8
0
  6
CONTINUOUS
 62
     7
100
AcDbLine
 10
3.5102965713
 20
1.9234192341
 30
0.0
 11
3.4010833679
 21
2.0326324376
 31
0.0
  0
LINE
  5
1A4
330
1F
100
AcDbEntity
  8
0
  6
CONTINUOUS
 62
     7
100
AcDbLine
 10
4.3816899696
 20
1.9190258359
 30
0.0
 11
3.520903173
 21
1.9190258359
 31
0.0
  0
LINE
  5
1A5
330
1F
100
AcDbEntity
  8
0
  6
CONTINUOUS
 62
     7
100
AcDbLine
 10
4.3966899696
 20
1.8720258359
 30
0.0
 11
4.3966899696
 21
1.9040258359
 31
0.0
  0
LINE
  5
1A6
330
1F
100
AcDbEntity
  8
0
  6
CONTINUOUS
 62
     7
100
AcDbLine
 10
3.0376899696
 20
1.8570258359
 30
0.0
 11
4.3816899696
 21
1.8570258359
 31
0.0
  0
LINE
  5
1A7
330
1F
100
AcDbEntity
  8
0
  6
CONTINUOUS
 62
     7
100
AcDbLine
 10
3.0226899696
 20
1.9670258359
 30
0.0
 11
3.0226899696
 21
1.8720258359
 31
0.0
  0
LINE
  5
1A8
330
1F
100
AcDbEntity
  8
0
  6
CONTINUOUS
 62
     7
100
AcDbLine
 10
3.1296899696
 20
1.9820258359
 30
0.0
 11
3.0376899696
 21
1.9820258359
 31
0.0
  0
LINE
  5
1A9
330
1F
100
AcDbEntity
  8
0
  6
CONTINUOUS
 62
     7
100
AcDbLine
 10
3.1446899696
 20
1.9340258359
 30
0.0
 11
3.1446899696
 21
1.9670258359
 31
0.0
  0
LINE
  5
1AA
330
1F
100
AcDbEntity
  8
0
  6
CONTINUOUS
 62
     7
100
AcDbLine
 10
3.3787244575
 20
1.9190258359
 30
0.0
 11
3.1596899696
 21
1.9190258359
 31
0.0
  0
LINE
  5
1AB
330
1F
100
AcDbEntity
  8
0
  6
CONTINUOUS
 62
     7
100
AcDbLine
 10
3.3346899696
 20
2.011344595
 30
0.0
 11
3.3928665931
 21
1.9531679715
 31
0.0
  0
LINE
  5
1AC
330
1F
100
AcDbEntity
  8
0
  6
CONTINUOUS
 62
     7
100
AcDbLine
 10
3.3346899696
 20
2.0890258359
 30
0.0
 11
3.3346899696
 21
2.011344595
 31
0.0
  0
LINE
  5
1AD
330
1F
100
AcDbEntity
  8
0
  6
CONTINUOUS
 62
     7
100
AcDbLine
 10
3.0376899696
 20
2.1040258359
 30
0.0
 11
3.3196899696
 21
2.1040258359
 31
0.0
  0
LINE
  5
1AE
330
1F
100
AcDbEntity
  8
0
  6
CONTINUOUS
 62
     7
100
AcDbLine
 10
3.0226899696
 20
2.1510258359
 30
0.0
 11
3.0226899696
 21
2.1190258359
 31
0.0
  0
LINE
  5
1AF
330
1F
100
AcDbEntity
  8
0
  6
CONTINUOUS
 62
     7
100
AcDbLine
 10
3.3196899696
 20
2.1660258359
 30
0.0
 11
3.0376899696
 21
2.1660258359
 31
0.0
  0
LINE
  5
1B0
330
1F
100
AcDbEntity
  8
0
  6
CONTINUOUS
 62
     7
100
AcDbLine
 10
3.3346899696
 20
2.7140258359
 30
0.0
 11
3.3346899696
 21
2.1810258359
 31
0.0
  0
LINE
  5
1B1
330
1F
100
AcDbEntity
  8
0
  6
CONTINUOUS
 62
     7
100
AcDbLine
 10
3.0726899696
 20
2.7290258359
 30
0.0
 11
3.3196899696
 21
2.7290258359
 31
0.0
  0
LINE
  5
1B2
330
1F
100
AcDbEntity
  8
0
  6
CONTINUOUS
 62
     7
100
AcDbLine
 10
3.0226899696
 20
2.8440258359
 30
0.0
 11
3.0226899696
 21
2.7790258359
 31
0.0
  0
LINE
  5
1B3
330
1F
100
AcDbEntity
  8
0
  6
CONTINUOUS
 62
     7
100
AcDbLine
 10
3.0696899696
 20
2.8590258359
 30
0.0
 11
3.0376899696
 21
2.8590258359
 31
0.0
  0
LINE
  5
1B4
330
1F
100
AcDbEntity
  8
0
  6
CONTINUOUS
 62
     7
100
AcDbLine
 10
3.0846899696
 20
2.8060258359
 30
0.0
 11
3.0846899696
 21
2.8440258359
 31
0.0
  0
LINE
  5
1B5
330
1F
100
AcDbEntity
  8
0
  6
CONTINUOUS
 62
     7
100
AcDbLine
 10
3.1326899696
 20
2.7910258359
 30
0.0
 11
3.0996899696
 21
2.7910258359
 31
0.0
  0
LINE
  5
1B6
330
1F
100
AcDbEntity
  8
0
  6
CONTINUOUS
 62
     7
100
AcDbLine
 10
3.1476899696
 20
3.4010258359
 30
0.0
 11
3.1476899696
 21
2.8060258359
 31
0.0
  0
LINE
  5
1B7
330
1F
100
AcDbEntity
  8
0
  6
CONTINUOUS
 62
     7
100
AcDbLine
 10
3.0996899696
 20
3.4160258359
 30
0.0
 11
3.1326899696
 21
3.4160258359
 31
0.0
  0
LINE
  5
1B8
330
1F
100
AcDbEntity
  8
0
  6
CONTINUOUS
 62
     7
100
AcDbLine
 10
3.0846899696
 20
3.3630258359
 30
0.0
 11
3.0846899696
 21
3.4010258359
 31
0.0
  0
LINE
  5
1B9
330
1F
100
AcDbEntity
  8
0
  6
CONTINUOUS
 62
     7
100
AcDbLine
 10
3.0376899696
 20
3.3480258359
 30
0.0
 11
3.0696899696
 21
3.3480258359
 31
0.0
  0
LINE
  5
1BA
330
1F
100
AcDbEntity
  8
0
  6
CONTINUOUS
 62
     7
100
AcDbLine
 10
3.0226899696
 20
3.5310258359
 30
0.0
 11
3.0226899696
 21
3.3630258359
 31
0.0
  0
LINE
  5
1BB
330
1F
100
AcDbEntity
  8
0
  6
CONTINUOUS
 62
     7
100
AcDbLine
 10
3.0696899696
 20
3.5460258359
 30
0.0
 11
3.0376899696
 21
3.5460258359
 31
0.0
  0
LINE
  5
1BC
330
1F
100
AcDbEntity
  8
0
  6
CONTINUOUS
 62
     7
100
AcDbLine
 10
3.0846899696
 20
3.4930258359
 30
0.0
 11
3.0846899696
 21
3.5310258359
 31
0.0
  0
LINE
  5
1BD
330
1F
100
AcDbEntity
  8
0
  6
CONTINUOUS
 62
     7
100
AcDbLine
 10
3.1326899696
 20
3.4780258359
 30
0.0
 11
3.0996899696
 21
3.4780258359
 31
0.0
  0
LINE
  5
1BE
330
1F
100
AcDbEntity
  8
0
  6
CONTINUOUS
 62
     7
100
AcDbLine
 10
3.1476899696
 20
4.0880258359
 30
0.0
 11
3.1476899696
 21
3.4930258359
 31
0.0
  0
LINE
  5
1BF
330
1F
100
AcDbEntity
  8
0
  6
CONTINUOUS
 62
     7
100
AcDbLine
 10
3.0996899696
 20
4.1030258359
 30
0.0
 11
3.1326899696
 21
4.1030258359
 31
0.0
  0
LINE
  5
1C0
330
1F
100
AcDbEntity
  8
0
  6
CONTINUOUS
 62
     7
100
AcDbLine
 10
3.0846899696
 20
4.0500258359
 30
0.0
 11
3.0846899696
 21
4.0880258359
 31
0.0
  0
LINE
  5
1C1
330
1F
100
AcDbEntity
  8
0
  6
CONTINUOUS
 62
     7
100
AcDbLine
 10
3.0376899696
 20
4.0350258359
 30
0.0
 11
3.0696899696
 21
4.0350258359
 31
0.0
  0
LINE
  5
1C2
330
1F
100
AcDbEntity
  8
0
  6
CONTINUOUS
 62
     7
100
AcDbLine
 10
3.0226899696
 20
4.1500258359
 30
0.0
 11
3.0226899696
 21
4.0500258359
 31
0.0
  0
LINE
  5
1C3
330
1F
100
AcDbEntity
  8
0
  6
CONTINUOUS
 62
     7
100
AcDbLine
 10
3.3816899696
 20
4.1650258359
 30
0.0
 11
3.0376899696
 21
4.1650258359
 31
0.0
  0
LINE
  5
1C4
330
1F
100
AcDbEntity
  8
0
  6
CONTINUOUS
 62
     7
100
AcDbLine
 10
3.3966899696
 20
3.9930258359
 30
0.0
 11
3.3966899696
 21
4.1500258359
 31
0.0
  0
LINE
  5
1C5
330
1F
100
AcDbEntity
  8
0
  6
CONTINUOUS
 62
     7
100
AcDbLine
 10
3.3346899696
 20
3.9780258359
 30
0.0
 11
3.3816899696
 21
3.9780258359
 31
0.0
  0
ARC
  5
1C6
330
1F
100
AcDbEntity
  8
0
  6
CONTINUOUS
 62
     7
100
AcDbCircle
 10
7.4756899696
 20
2.7140258359
 30
0.0
 40
0.0149999999999997
100
AcDbArc
 50
90.0
 51
180.0
  0
ARC
  5
1C7
330
1F
100
AcDbEntity
  8
0
  6
CONTINUOUS
 62
     7
100
AcDbCircle
 10
7.4456899696
 20
2.6425577984
 30
0.0
 40
0.0150000000000008
100
AcDbArc
 50
315.0
 51
0.0
  0
ARC
  5
1C8
330
1F
100
AcDbEntity
  8
0
  6
CONTINUOUS
 62
     7
100
AcDbCircle
 10
7.4166554817
 20
2.5640258359
 30
0.0
 40
0.0200000000000005
100
AcDbArc
 50
135.0
 51
270.0
  0
ARC
  5
1C9
330
1F
100
AcDbEntity
  8
0
  6
CONTINUOUS
 62
     7
100
AcDbCircle
 10
7.6356899696
 20
2.5590258359
 30
0.0
 40
0.0150000000000001
100
AcDbArc
 50
270.0
 51
0.0
  0
ARC
  5
1CA
330
1F
100
AcDbEntity
  8
0
  6
CONTINUOUS
 62
     7
100
AcDbCircle
 10
7.6656899696
 20
2.5920258359
 30
0.0
 40
0.0149999999999997
100
AcDbArc
 50
90.0
 51
180.0
  0
ARC
  5
1CB
330
1F
100
AcDbEntity
  8
0
  6
CONTINUOUS
 62
     7
100
AcDbCircle
 10
7.7576899696
 20
2.5920258359
 30
0.0
 40
0.0149999999999997
100
AcDbArc
 50
0.0
 51
90.0
  0
ARC
  5
1CC
330
1F
100
AcDbEntity
  8
0
  6
CONTINUOUS
 62
     7
100
AcDbCircle
 10
7.7576899696
 20
2.4970258359
 30
0.0
 40
0.0150000000000001
100
AcDbArc
 50
270.0
 51
0.0
  0
ARC
  5
1CD
330
1F
100
AcDbEntity
  8
0
  6
CONTINUOUS
 62
     7
100
AcDbCircle
 10
6.4136899696
 20
2.4970258359
 30
0.0
 40
0.0150000000000001
100
AcDbArc
 50
180.0
 51
270.0
  0
ARC
  5
1CE
330
1F
100
AcDbEntity
  8
0
  6
CONTINUOUS
 62
     7
100
AcDbCircle
 10
6.4136899696
 20
2.5290258359
 30
0.0
 40
0.0149999999999997
100
AcDbArc
 50
90.0
 51
180.0
  0
ARC
  5
1CF
330
1F
100
AcDbEntity
  8
0
  6
CONTINUOUS
 62
     7
100
AcDbCircle
 10
7.2744767662
 20
2.5590258359
 30
0.0
 40
0.0150000000000008
100
AcDbArc
 50
270.0
 51
315.0
  0
ARC
  5
1D0
330
1F
100
AcDbEntity
  8
0
  6
CONTINUOUS
 62
     7
100
AcDbCircle
 10
7.3836899696
 20
2.6682390393
 30
0.0
 40
0.0149999999999999
100
AcDbArc
 50
315.0
 51
0.0
  0
ARC
  5
1D1
330
1F
100
AcDbEntity
  8
0
  6
CONTINUOUS
 62
     7
100
AcDbCircle
 10
7.4136899696
 20
3.0880258359
 30
0.0
 40
0.0150000000000006
100
AcDbArc
 50
90.0
 51
180.0
  0
ARC
  5
1D2
330
1F
100
AcDbEntity
  8
0
  6
CONTINUOUS
 62
     7
100
AcDbCircle
 10
7.4456899696
 20
3.0880258359
 30
0.0
 40
0.0150000000000006
100
AcDbArc
 50
0.0
 51
90.0
  0
ARC
  5
1D3
330
1F
100
AcDbEntity
  8
0
  6
CONTINUOUS
 62
     7
100
AcDbCircle
 10
7.4756899696
 20
2.8060258359
 30
0.0
 40
0.0150000000000001
100
AcDbArc
 50
180.0
 51
270.0
  0
ARC
  5
1D4
330
1F
100
AcDbEntity
  8
0
  6
CONTINUOUS
 62
     7
100
AcDbCircle
 10
7.5706899696
 20
2.8060258359
 30
0.0
 40
0.0150000000000006
100
AcDbArc
 50
270.0
 51
0.0
  0
ARC
  5
1D5
330
1F
100
AcDbEntity
  8
0
  6
CONTINUOUS
 62
     7
100
AcDbCircle
 10
7.5706899696
 20
4.0880258359
 30
0.0
 40
0.0150000000000006
100
AcDbArc
 50
0.0
 51
90.0
  0
ARC
  5
1D6
330
1F
100
AcDbEntity
  8
0
  6
CONTINUOUS
 62
     7
100
AcDbCircle
 10
7.4756899696
 20
4.0880258359
 30
0.0
 40
0.0149999999999997
100
AcDbArc
 50
90.0
 51
180.0
  0
ARC
  5
1D7
330
1F
100
AcDbEntity
  8
0
  6
CONTINUOUS
 62
     7
100
AcDbCircle
 10
7.4136899696
 20
4.1500258359
 30
0.0
 40
0.0149999999999997
100
AcDbArc
 50
90.0
 51
180.0
  0
ARC
  5
1D8
330
1F
100
AcDbEntity
  8
0
  6
CONTINUOUS
 62
     7
100
AcDbCircle
 10
7.7576899696
 20
4.1500258359
 30
0.0
 40
0.0149999999999997
100
AcDbArc
 50
0.0
 51
90.0
  0
ARC
  5
1D9
330
1F
100
AcDbEntity
  8
0
  6
CONTINUOUS
 62
     7
100
AcDbCircle
 10
7.7576899696
 20
4.0500258359
 30
0.0
 40
0.0150000000000006
100
AcDbArc
 50
270.0
 51
0.0
  0
ARC
  5
1DA
330
1F
100
AcDbEntity
  8
0
  6
CONTINUOUS
 62
     7
100
AcDbCircle
 10
7.7256899696
 20
4.0500258359
 30
0.0
 40
0.0150000000000006
100
AcDbArc
 50
180.0
 51
270.0
  0
ARC
  5
1DB
330
1F
100
AcDbEntity
  8
0
  6
CONTINUOUS
 62
     7
100
AcDbCircle
 10
7.6956899696
 20
4.0880258359
 30
0.0
 40
0.0149999999999997
100
AcDbArc
 50
0.0
 51
90.0
  0
ARC
  5
1DC
330
1F
100
AcDbEntity
  8
0
  6
CONTINUOUS
 62
     7
100
AcDbCircle
 10
7.6626899696
 20
4.0880258359
 30
0.0
 40
0.0150000000000006
100
AcDbArc
 50
90.0
 51
180.0
  0
ARC
  5
1DD
330
1F
100
AcDbEntity
  8
0
  6
CONTINUOUS
 62
     7
100
AcDbCircle
 10
7.6626899696
 20
3.4930258359
 30
0.0
 40
0.0150000000000006
100
AcDbArc
 50
180.0
 51
270.0
  0
ARC
  5
1DE
330
1F
100
AcDbEntity
  8
0
  6
CONTINUOUS
 62
     7
100
AcDbCircle
 10
7.6956899696
 20
3.4930258359
 30
0.0
 40
0.0149999999999997
100
AcDbArc
 50
270.0
 51
0.0
  0
ARC
  5
1DF
330
1F
100
AcDbEntity
  8
0
  6
CONTINUOUS
 62
     7
100
AcDbCircle
 10
7.7256899696
 20
3.5310258359
 30
0.0
 40
0.0150000000000006
100
AcDbArc
 50
90.0
 51
180.0
  0
ARC
  5
1E0
330
1F
100
AcDbEntity
  8
0
  6
CONTINUOUS
 62
     7
100
AcDbCircle
 10
7.7576899696
 20
3.5310258359
 30
0.0
 40
0.0149999999999997
100
AcDbArc
 50
0.0
 51
90.0
  0
ARC
  5
1E1
330
1F
100
AcDbEntity
  8
0
  6
CONTINUOUS
 62
     7
100
AcDbCircle
 10
7.7576899696
 20
3.3630258359
 30
0.0
 40
0.0150000000000001
100
AcDbArc
 50
270.0
 51
0.0
  0
ARC
  5
1E2
330
1F
100
AcDbEntity
  8
0
  6
CONTINUOUS
 62
     7
100
AcDbCircle
 10
7.7256899696
 20
3.3630258359
 30
0.0
 40
0.0150000000000006
100
AcDbArc
 50
180.0
 51
270.0
  0
ARC
  5
1E3
330
1F
100
AcDbEntity
  8
0
  6
CONTINUOUS
 62
     7
100
AcDbCircle
 10
7.6956899696
 20
3.4010258359
 30
0.0
 40
0.0150000000000006
100
AcDbArc
 50
0.0
 51
90.0
  0
ARC
  5
1E4
330
1F
100
AcDbEntity
  8
0
  6
CONTINUOUS
 62
     7
100
AcDbCircle
 10
7.6626899696
 20
3.4010258359
 30
0.0
 40
0.0150000000000006
100
AcDbArc
 50
90.0
 51
180.0
  0
ARC
  5
1E5
330
1F
100
AcDbEntity
  8
0
  6
CONTINUOUS
 62
     7
100
AcDbCircle
 10
7.6626899696
 20
2.8060258359
 30
0.0
 40
0.0150000000000006
100
AcDbArc
 50
180.0
 51
270.0
  0
ARC
  5
1E6
330
1F
100
AcDbEntity
  8
0
  6
CONTINUOUS
 62
     7
100
AcDbCircle
 10
7.6956899696
 20
2.8060258359
 30
0.0
 40
0.0150000000000001
100
AcDbArc
 50
270.0
 51
0.0
  0
ARC
  5
1E7
330
1F
100
AcDbEntity
  8
0
  6
CONTINUOUS
 62
     7
100
AcDbCircle
 10
7.7256899696
 20
2.8440258359
 30
0.0
 40
0.0150000000000006
100
AcDbArc
 50
90.0
 51
180.0
  0
ARC
  5
1E8
330
1F
100
AcDbEntity
  8
0
  6
CONTINUOUS
 62
     7
100
AcDbCircle
 10
7.7576899696
 20
2.8440258359
 30
0.0
 40
0.0150000000000006
100
AcDbArc
 50
0.0
 51
90.0
  0
ARC
  5
1E9
330
1F
100
AcDbEntity
  8
0
  6
CONTINUOUS
 62
     7
100
AcDbCircle
 10
7.7226899696
 20
2.7790258359
 30
0.0
 40
0.0500000000000016
100
AcDbArc
 50
270.0
 51
0.0
  0
LINE
  5
1EA
330
1F
100
AcDbEntity
  8
0
  6
CONTINUOUS
 62
     7
100
AcDbLine
 10
7.4606899696
 20
4.0880258359
 30
0.0
 11
7.4606899696
 21
3.9780258359
 31
0.0
  0
LINE
  5
1EB
330
1F
100
AcDbEntity
  8
0
  6
CONTINUOUS
 62
     7
100
AcDbLine
 10
7.5706899696
 20
4.1030258359
 30
0.0
 11
7.4756899696
 21
4.1030258359
 31
0.0
  0
ARC
  5
1EC
330
1F
100
AcDbEntity
  8
0
  6
CONTINUOUS
 62
     7
100
AcDbCircle
 10
7.4136899696
 20
3.9930258359
 30
0.0
 40
0.0150000000000001
100
AcDbArc
 50
180.0
 51
270.0
  0
LINE
  5
1ED
330
1F
100
AcDbEntity
  8
0
  6
CONTINUOUS
 62
     7
100
AcDbLine
 10
7.4756899696
 20
2.7910258359
 30
0.0
 11
7.5706899696
 21
2.7910258359
 31
0.0
  0
LINE
  5
1EE
330
1F
100
AcDbEntity
  8
0
  6
CONTINUOUS
 62
     7
100
AcDbLine
 10
7.4606899696
 20
3.0880258359
 30
0.0
 11
7.4606899696
 21
2.8060258359
 31
0.0
  0
LINE
  5
1EF
330
1F
100
AcDbEntity
  8
0
  6
CONTINUOUS
 62
     7
100
AcDbLine
 10
7.4136899696
 20
3.1030258359
 30
0.0
 11
7.4456899696
 21
3.1030258359
 31
0.0
  0
LINE
  5
1F0
330
1F
100
AcDbEntity
  8
0
  6
CONTINUOUS
 62
     7
100
AcDbLine
 10
7.3986899696
 20
2.6682390393
 30
0.0
 11
7.3986899696
 21
3.0880258359
 31
0.0
  0
LINE
  5
1F1
330
1F
100
AcDbEntity
  8
0
  6
CONTINUOUS
 62
     7
100
AcDbLine
 10
7.2850833679
 20
2.5484192341
 30
0.0
 11
7.3942965713
 21
2.6576324376
 31
0.0
  0
LINE
  5
1F2
330
1F
100
AcDbEntity
  8
0
  6
CONTINUOUS
 62
     7
100
AcDbLine
 10
6.4136899696
 20
2.5440258359
 30
0.0
 11
7.2744767662
 21
2.5440258359
 31
0.0
  0
LINE
  5
1F3
330
1F
100
AcDbEntity
  8
0
  6
CONTINUOUS
 62
     7
100
AcDbLine
 10
6.3986899696
 20
2.4970258359
 30
0.0
 11
6.3986899696
 21
2.5290258359
 31
0.0
  0
LINE
  5
1F4
330
1F
100
AcDbEntity
  8
0
  6
CONTINUOUS
 62
     7
100
AcDbLine
 10
7.7576899696
 20
2.4820258359
 30
0.0
 11
6.4136899696
 21
2.4820258359
 31
0.0
  0
LINE
  5
1F5
330
1F
100
AcDbEntity
  8
0
  6
CONTINUOUS
 62
     7
100
AcDbLine
 10
7.7726899696
 20
2.5920258359
 30
0.0
 11
7.7726899696
 21
2.4970258359
 31
0.0
  0
LINE
  5
1F6
330
1F
100
AcDbEntity
  8
0
  6
CONTINUOUS
 62
     7
100
AcDbLine
 10
7.6656899696
 20
2.6070258359
 30
0.0
 11
7.7576899696
 21
2.6070258359
 31
0.0
  0
LINE
  5
1F7
330
1F
100
AcDbEntity
  8
0
  6
CONTINUOUS
 62
     7
100
AcDbLine
 10
7.6506899696
 20
2.5590258359
 30
0.0
 11
7.6506899696
 21
2.5920258359
 31
0.0
  0
LINE
  5
1F8
330
1F
100
AcDbEntity
  8
0
  6
CONTINUOUS
 62
     7
100
AcDbLine
 10
7.4166554817
 20
2.5440258359
 30
0.0
 11
7.6356899696
 21
2.5440258359
 31
0.0
  0
LINE
  5
1F9
330
1F
100
AcDbEntity
  8
0
  6
CONTINUOUS
 62
     7
100
AcDbLine
 10
7.4562965713
 20
2.6319511967
 30
0.0
 11
7.4025133461
 21
2.5781679715
 31
0.0
  0
LINE
  5
1FA
330
1F
100
AcDbEntity
  8
0
  6
CONTINUOUS
 62
     7
100
AcDbLine
 10
7.4606899696
 20
2.7140258359
 30
0.0
 11
7.4606899696
 21
2.6425577984
 31
0.0
  0
LINE
  5
1FB
330
1F
100
AcDbEntity
  8
0
  6
CONTINUOUS
 62
     7
100
AcDbLine
 10
7.7226899696
 20
2.7290258359
 30
0.0
 11
7.4756899696
 21
2.7290258359
 31
0.0
  0
LINE
  5
1FC
330
1F
100
AcDbEntity
  8
0
  6
CONTINUOUS
 62
     7
100
AcDbLine
 10
7.7726899696
 20
2.8440258359
 30
0.0
 11
7.7726899696
 21
2.7790258359
 31
0.0
  0
LINE
  5
1FD
330
1F
100
AcDbEntity
  8
0
  6
CONTINUOUS
 62
     7
100
AcDbLine
 10
7.7256899696
 20
2.8590258359
 30
0.0
 11
7.7576899696
 21
2.8590258359
 31
0.0
  0
LINE
  5
1FE
330
1F
100
AcDbEntity
  8
0
  6
CONTINUOUS
 62
     7
100
AcDbLine
 10
7.7106899696
 20
2.8060258359
 30
0.0
 11
7.7106899696
 21
2.8440258359
 31
0.0
  0
LINE
  5
1FF
330
1F
100
AcDbEntity
  8
0
  6
CONTINUOUS
 62
     7
100
AcDbLine
 10
7.6626899696
 20
2.7910258359
 30
0.0
 11
7.6956899696
 21
2.7910258359
 31
0.0
  0
LINE
  5
200
330
1F
100
AcDbEntity
  8
0
  6
CONTINUOUS
 62
     7
100
AcDbLine
 10
7.6476899696
 20
3.4010258359
 30
0.0
 11
7.6476899696
 21
2.8060258359
 31
0.0
  0
LINE
  5
201
330
1F
100
AcDbEntity
  8
0
  6
CONTINUOUS
 62
     7
100
AcDbLine
 10
7.6956899696
 20
3.4160258359
 30
0.0
 11
7.6626899696
 21
3.4160258359
 31
0.0
  0
LINE
  5
202
330
1F
100
AcDbEntity
  8
0
  6
CONTINUOUS
 62
     7
100
AcDbLine
 10
7.7106899696
 20
3.3630258359
 30
0.0
 11
7.7106899696
 21
3.4010258359
 31
0.0
  0
LINE
  5
203
330
1F
100
AcDbEntity
  8
0
  6
CONTINUOUS
 62
     7
100
AcDbLine
 10
7.7576899696
 20
3.3480258359
 30
0.0
 11
7.7256899696
 21
3.3480258359
 31
0.0
  0
LINE
  5
204
330
1F
100
AcDbEntity
  8
0
  6
CONTINUOUS
 62
     7
100
AcDbLine
 10
7.7726899696
 20
3.5310258359
 30
0.0
 11
7.7726899696
 21
3.3630258359
 31
0.0
  0
LINE
  5
205
330
1F
100
AcDbEntity
  8
0
  6
CONTINUOUS
 62
     7
100
AcDbLine
 10
7.7256899696
 20
3.5460258359
 30
0.0
 11
7.7576899696
 21
3.5460258359
 31
0.0
  0
LINE
  5
206
330
1F
100
AcDbEntity
  8
0
  6
CONTINUOUS
 62
     7
100
AcDbLine
 10
7.7106899696
 20
3.4930258359
 30
0.0
 11
7.7106899696
 21
3.5310258359
 31
0.0
  0
LINE
  5
207
330
1F
100
AcDbEntity
  8
0
  6
CONTINUOUS
 62
     7
100
AcDbLine
 10
7.6626899696
 20
3.4780258359
 30
0.0
 11
7.6956899696
 21
3.4780258359
 31
0.0
  0
LINE
  5
208
330
1F
100
AcDbEntity
  8
0
  6
CONTINUOUS
 62
     7
100
AcDbLine
 10
7.6476899696
 20
4.0880258359
 30
0.0
 11
7.6476899696
 21
3.4930258359
 31
0.0
  0
LINE
  5
209
330
1F
100
AcDbEntity
  8
0
  6
CONTINUOUS
 62
     7
100
AcDbLine
 10
7.6956899696
 20
4.1030258359
 30
0.0
 11
7.6626899696
 21
4.1030258359
 31
0.0
  0
LINE
  5
20A
330
1F
100
AcDbEntity
  8
0
  6
CONTINUOUS
 62
     7
100
AcDbLine
 10
7.7106899696
 20
4.0500258359
 30
0.0
 11
7.7106899696
 21
4.0880258359
 31
0.0
  0
LINE
  5
20B
330
1F
100
AcDbEntity
  8
0
  6
CONTINUOUS
 62
     7
100
AcDbLine
 10
7.7576899696
 20
4.0350258359
 30
0.0
 11
7.7256899696
 21
4.0350258359
 31
0.0
  0
LINE
  5
20C
330
1F
100
AcDbEntity
  8
0
  6
CONTINUOUS
 62
     7
100
AcDbLine
 10
7.7726899696
 20
4.1500258359
 30
0.0
 11
7.7726899696
 21
4.0500258359
 31
0.0
  0
LINE
  5
20D
330
1F
100
AcDbEntity
  8
0
  6
CONTINUOUS
 62
     7
100
AcDbLine
 10
7.4136899696
 20
4.1650258359
 30
0.0
 11
7.7576899696
 21
4.1650258359
 31
0.0
  0
LINE
  5
20E
330
1F
100
AcDbEntity
  8
0
  6
CONTINUOUS
 62
     7
100
AcDbLine
 10
7.3986899696
 20
3.9930258359
 30
0.0
 11
7.3986899696
 21
4.1500258359
 31
0.0
  0
LINE
  5
20F
330
1F
100
AcDbEntity
  8
0
  6
CONTINUOUS
 62
     7
100
AcDbLine
 10
7.4606899696
 20
3.9780258359
 30
0.0
 11
7.4136899696
 21
3.9780258359
 31
0.0
  0
LINE
  5
210
330
1F
100
AcDbEntity
  8
0
  6
CONTINUOUS
 62
     7
100
AcDbLine
 10
7.5856899696
 20
2.8060258359
 30
0.0
 11
7.5856899696
 21
4.0880258359
 31
0.0
  0
LINE
  5
211
330
1F
100
AcDbEntity
  8
0
  6
CONTINUOUS
 62
     7
100
AcDbLine
 10
7.5761899696
 20
3.6990258359
 30
0.0
 11
7.5761899696
 21
4.0720258359
 31
0.0
  0
ARC
  5
212
330
1F
100
AcDbEntity
  8
0
  6
CONTINUOUS
 62
     7
100
AcDbCircle
 10
7.5451899696
 20
3.6990258359
 30
0.0
 40
0.0310000000000001
100
AcDbArc
 50
270.0
 51
360.0
  0
LINE
  5
213
330
1F
100
AcDbEntity
  8
0
  6
CONTINUOUS
 62
     7
100
AcDbLine
 10
7.5451899696
 20
3.6680258359
 30
0.0
 11
6.6278696981
 21
3.6680258359
 31
0.0
  0
LINE
  5
214
330
1F
100
AcDbEntity
  8
0
  6
CONTINUOUS
 62
     7
100
AcDbLine
 10
6.4625102411
 20
3.6680258359
 30
0.0
 11
4.3328696981
 21
3.6680258359
 31
0.0
  0
LINE
  5
215
330
1F
100
AcDbEntity
  8
0
  6
CONTINUOUS
 62
     7
100
AcDbLine
 10
4.1675102411
 20
3.6680258359
 30
0.0
 11
3.2501899696
 21
3.6680258359
 31
0.0
  0
ARC
  5
216
330
1F
100
AcDbEntity
  8
0
  6
CONTINUOUS
 62
     7
100
AcDbCircle
 10
3.2501899696
 20
3.6990258359
 30
0.0
 40
0.031000000000001
100
AcDbArc
 50
180.0
 51
270.0
  0
LINE
  5
217
330
1F
100
AcDbEntity
  8
0
  6
CONTINUOUS
 62
     7
100
AcDbLine
 10
3.2191899696
 20
3.6990258359
 30
0.0
 11
3.2191899696
 21
4.0720258359
 31
0.0
  0
ARC
  5
218
330
1F
100
AcDbEntity
  8
0
  6
CONTINUOUS
 62
     7
100
AcDbCircle
 10
3.2501899696
 20
4.0720258359
 30
0.0
 40
0.0310000000000006
100
AcDbArc
 50
90.0
 51
180.0
  0
ARC
  5
219
330
1F
100
AcDbEntity
  8
0
  6
CONTINUOUS
 62
     7
100
AcDbCircle
 10
3.3911899696
 20
3.8400258359
 30
0.0
 40
0.0620000000000003
100
AcDbArc
 50
180.0
 51
270.0
  0
LINE
  5
21A
330
1F
100
AcDbEntity
  8
0
  6
CONTINUOUS
 62
     7
100
AcDbLine
 10
3.3911899696
 20
3.7780258359
 30
0.0
 11
7.4041899696
 21
3.7780258359
 31
0.0
  0
ARC
  5
21B
330
1F
100
AcDbEntity
  8
0
  6
CONTINUOUS
 62
     7
100
AcDbCircle
 10
7.4041899696
 20
3.8400258359
 30
0.0
 40
0.0620000000000003
100
AcDbArc
 50
270.0
 51
360.0
  0
LINE
  5
21C
330
1F
100
AcDbEntity
  8
0
  6
CONTINUOUS
 62
     7
100
AcDbLine
 10
7.4661899696
 20
3.8400258359
 30
0.0
 11
7.4661899696
 21
4.0720258359
 31
0.0
  0
ARC
  5
21D
330
1F
100
AcDbEntity
  8
0
  6
CONTINUOUS
 62
     7
100
AcDbCircle
 10
7.4971899696
 20
4.0720258359
 30
0.0
 40
0.0310000000000006
100
AcDbArc
 50
90.0
 51
180.0
  0
ARC
  5
21E
330
1F
100
AcDbEntity
  8
0
  6
CONTINUOUS
 62
     7
100
AcDbCircle
 10
7.5451899696
 20
4.0720258359
 30
0.0
 40
0.0309999999999997
100
AcDbArc
 50
0.0
 51
90.0
  0
ARC
  5
21F
330
1F
100
AcDbEntity
  8
0
  6
CONTINUOUS
 62
     7
100
AcDbCircle
 10
3.2981899696
 20
4.0720258359
 30
0.0
 40
0.0310000000000001
100
AcDbArc
 50
0.0
 51
90.0
  0
LINE
  5
220
330
1F
100
AcDbEntity
  8
0
  6
CONTINUOUS
 62
     7
100
AcDbLine
 10
3.3291899696
 20
4.0720258359
 30
0.0
 11
3.3291899696
 21
3.8400258359
 31
0.0
  0
ARC
  5
221
330
1F
100
AcDbEntity
  8
0
  6
CONTINUOUS
 62
     7
100
AcDbCircle
 10
7.4041899696
 20
3.2797758359
 30
0.0
 40
0.0619999999999998
100
AcDbArc
 50
0.0
 51
90.0
  0
LINE
  5
222
330
1F
100
AcDbEntity
  8
0
  6
CONTINUOUS
 62
     7
100
AcDbLine
 10
7.4041899696
 20
3.3417758359
 30
0.0
 11
6.4836899696
 21
3.3417758359
 31
0.0
  0
LINE
  5
223
330
1F
100
AcDbEntity
  8
0
  6
CONTINUOUS
 62
     7
100
AcDbLine
 10
6.4201899696
 20
3.3417758359
 30
0.0
 11
4.3751899696
 21
3.3417758359
 31
0.0
  0
LINE
  5
224
330
1F
100
AcDbEntity
  8
0
  6
CONTINUOUS
 62
     7
100
AcDbLine
 10
4.3116899696
 20
3.3417758359
 30
0.0
 11
3.3911899696
 21
3.3417758359
 31
0.0
  0
ARC
  5
225
330
1F
100
AcDbEntity
  8
0
  6
CONTINUOUS
 62
     7
100
AcDbCircle
 10
3.3911899696
 20
3.2797758359
 30
0.0
 40
0.0620000000000003
100
AcDbArc
 50
90.0
 51
180.0
  0
LINE
  5
226
330
1F
100
AcDbEntity
  8
0
  6
CONTINUOUS
 62
     7
100
AcDbLine
 10
3.2191899696
 20
3.4207758359
 30
0.0
 11
3.2191899696
 21
3.3297758359
 31
0.0
  0
ARC
  5
227
330
1F
100
AcDbEntity
  8
0
  6
CONTINUOUS
 62
     7
100
AcDbCircle
 10
3.2501899696
 20
3.4207758359
 30
0.0
 40
0.0310000000000006
100
AcDbArc
 50
90.0
 51
180.0
  0
LINE
  5
228
330
1F
100
AcDbEntity
  8
0
  6
CONTINUOUS
 62
     7
100
AcDbLine
 10
3.2501899696
 20
3.4517758359
 30
0.0
 11
4.2429472674
 21
3.4517758359
 31
0.0
  0
LINE
  5
229
330
1F
100
AcDbEntity
  8
0
  6
CONTINUOUS
 62
     7
100
AcDbLine
 10
4.2750646555
 20
3.4517758359
 30
0.0
 11
4.307349552
 21
3.4517758359
 31
0.0
  0
LINE
  5
22A
330
1F
100
AcDbEntity
  8
0
  6
CONTINUOUS
 62
     7
100
AcDbLine
 10
4.3751899696
 20
3.4517758359
 30
0.0
 11
6.4201899696
 21
3.4517758359
 31
0.0
  0
LINE
  5
22B
330
1F
100
AcDbEntity
  8
0
  6
CONTINUOUS
 62
     7
100
AcDbLine
 10
6.4880303872
 20
3.4517758359
 30
0.0
 11
6.5203152837
 21
3.4517758359
 31
0.0
  0
LINE
  5
22C
330
1F
100
AcDbEntity
  8
0
  6
CONTINUOUS
 62
     7
100
AcDbLine
 10
6.5524326718
 20
3.4517758359
 30
0.0
 11
7.5451899696
 21
3.4517758359
 31
0.0
  0
LINE
  5
22D
330
1F
100
AcDbEntity
  8
0
  6
CONTINUOUS
 62
     7
100
AcDbLine
 10
7.5761899696
 20
3.4207758359
 30
0.0
 11
7.5761899696
 21
3.3297758359
 31
0.0
  0
ARC
  5
22E
330
1F
100
AcDbEntity
  8
0
  6
CONTINUOUS
 62
     7
100
AcDbCircle
 10
7.5451899696
 20
3.4207758359
 30
0.0
 40
0.0310000000000006
100
AcDbArc
 50
0.0
 51
90.0
  0
ARC
  5
22F
330
1F
100
AcDbEntity
  8
0
  6
CONTINUOUS
 62
     7
100
AcDbCircle
 10
6.5451899696
 20
3.5742758359
 30
0.0
 40
0.1250000000000016
100
AcDbArc
 50
251.174012251
 51
267.044291323
  0
ARC
  5
230
330
1F
100
AcDbEntity
  8
0
  6
CONTINUOUS
 62
     7
100
AcDbCircle
 10
6.4996899696
 20
3.440818914
 30
0.0
 40
0.0160000000000001
100
AcDbArc
 50
71.174012251
 51
180.0
  0
ARC
  5
231
330
1F
100
AcDbEntity
  8
0
  6
CONTINUOUS
 62
     7
100
AcDbCircle
 10
6.5451899696
 20
3.5742758359
 30
0.0
 40
0.0615000000000018
100
AcDbArc
 50
2.955708677
 51
267.044291323
  0
ARC
  5
232
330
1F
100
AcDbEntity
  8
0
  6
CONTINUOUS
 62
     7
100
AcDbCircle
 10
6.6383159185
 20
3.5790841761
 30
0.0
 40
0.0317500000000012
100
AcDbArc
 50
182.955708677
 51
2.955708677
  0
ARC
  5
233
330
1F
100
AcDbEntity
  8
0
  6
CONTINUOUS
 62
     7
100
AcDbCircle
 10
6.5451899696
 20
3.5742758359
 30
0.0
 40
0.1250000000000025
100
AcDbArc
 50
2.955708677
 51
180.0
  0
LINE
  5
234
330
1F
100
AcDbEntity
  8
0
  6
CONTINUOUS
 62
     7
100
AcDbLine
 10
6.4201899696
 20
2.5872758359
 30
0.0
 11
6.4201899696
 21
3.5742758359
 31
0.0
  0
LINE
  5
235
330
1F
100
AcDbEntity
  8
0
  6
CONTINUOUS
 62
     7
100
AcDbLine
 10
6.4836899696
 20
2.5872758359
 30
0.0
 11
6.4201899696
 21
2.5872758359
 31
0.0
  0
ARC
  5
236
330
1F
100
AcDbEntity
  8
0
  6
CONTINUOUS
 62
     7
100
AcDbCircle
 10
6.5403816293
 20
3.4811498869
 30
0.0
 40
0.0317500000000008
100
AcDbArc
 50
267.044291323
 51
87.044291323
  0
LINE
  5
237
330
1F
100
AcDbEntity
  8
0
  6
CONTINUOUS
 62
     7
100
AcDbLine
 10
6.4836899696
 20
3.440818914
 30
0.0
 11
6.4836899696
 21
2.5872758359
 31
0.0
  0
ARC
  5
238
330
1F
100
AcDbEntity
  8
0
  6
CONTINUOUS
 62
     7
100
AcDbCircle
 10
4.2501899696
 20
3.5742758359
 30
0.0
 40
0.1250000000000009
100
AcDbArc
 50
0.0
 51
177.044291323
  0
ARC
  5
239
330
1F
100
AcDbEntity
  8
0
  6
CONTINUOUS
 62
     7
100
AcDbCircle
 10
4.2501899696
 20
3.5742758359
 30
0.0
 40
0.1250000000000008
100
AcDbArc
 50
272.955708677
 51
288.825987749
  0
ARC
  5
23A
330
1F
100
AcDbEntity
  8
0
  6
CONTINUOUS
 62
     7
100
AcDbCircle
 10
4.1570640207
 20
3.5790841761
 30
0.0
 40
0.0317500000000004
100
AcDbArc
 50
177.044291323
 51
357.044291323
  0
ARC
  5
23B
330
1F
100
AcDbEntity
  8
0
  6
CONTINUOUS
 62
     7
100
AcDbCircle
 10
4.2956899696
 20
3.440818914
 30
0.0
 40
0.0160000000000001
100
AcDbArc
 50
0.0
 51
108.825987749
  0
LINE
  5
23C
330
1F
100
AcDbEntity
  8
0
  6
CONTINUOUS
 62
     7
100
AcDbLine
 10
4.3751899696
 20
1.9652758359
 30
0.0
 11
4.3751899696
 21
3.5742758359
 31
0.0
  0
LINE
  5
23D
330
1F
100
AcDbEntity
  8
0
  6
CONTINUOUS
 62
     7
100
AcDbLine
 10
4.3116899696
 20
1.9652758359
 30
0.0
 11
4.3751899696
 21
1.9652758359
 31
0.0
  0
LINE
  5
23E
330
1F
100
AcDbEntity
  8
0
  6
CONTINUOUS
 62
     7
100
AcDbLine
 10
4.3116899696
 20
3.440818914
 30
0.0
 11
4.3116899696
 21
1.9652758359
 31
0.0
  0
ARC
  5
23F
330
1F
100
AcDbEntity
  8
0
  6
CONTINUOUS
 62
     7
100
AcDbCircle
 10
4.2501899696
 20
3.5742758359
 30
0.0
 40
0.0615000000000001
100
AcDbArc
 50
272.955708677
 51
177.044291323
  0
ARC
  5
240
330
1F
100
AcDbEntity
  8
0
  6
CONTINUOUS
 62
     7
100
AcDbCircle
 10
4.2549983099
 20
3.4811498869
 30
0.0
 40
0.0317500000000004
100
AcDbArc
 50
92.955708677
 51
272.955708677
  0
CIRCLE
  5
241
330
1F
100
AcDbEntity
  8
0
  6
CONTINUOUS
 62
     7
100
AcDbCircle
 10
4.2501899696
 20
3.5742758359
 30
0.0
 40
0.0174999999999999
  0
LWPOLYLINE
  5
242
330
1F
100
AcDbEntity
  8
0
  6
CONTINUOUS
 62
     7
100
AcDbPolyline
 90
        3
 70
   128
 43
0.0
 10
4.1933806963
 20
3.5507183219
 10
4.1886899744
 20
3.5742514986
 10
4.1887717834
 20
3.5774470201
  0
ARC
  5
243
330
1F
100
AcDbEntity
  8
0
  6
CONTINUOUS
 62
     7
100
AcDbCircle
 10
4.2501899696
 20
3.5742758359
 30
0.0
 40
0.0615
100
AcDbArc
 50
202.5226735859
 51
272.955708677
  0
CIRCLE
  5
244
330
1F
100
AcDbEntity
  8
0
  6
CONTINUOUS
 62
     7
100
AcDbCircle
 10
6.5451899696
 20
3.5742758359
 30
0.0
 40
0.017499999999999
  0
ARC
  5
245
330
1F
100
AcDbEntity
  8
0
  6
CONTINUOUS
 62
     7
100
AcDbCircle
 10
6.5451899696
 20
3.5742758359
 30
0.0
 40
0.0615000000002205
100
AcDbArc
 50
267.044291323
 51
2.9557086768
  0
LINE
  5
246
330
1F
100
AcDbEntity
  8
0
  6
CONTINUOUS
 62
     7
100
AcDbLine
 10
7.5801899696
 20
3.319164255
 30
0.0
 11
7.4661899696
 21
3.319164255
 31
0.0
  0
LINE
  5
247
330
1F
100
AcDbEntity
  8
0
  6
CONTINUOUS
 62
     7
100
AcDbLine
 10
7.5801899696
 20
3.319164255
 30
0.0
 11
7.5801899696
 21
2.9565177792
 31
0.0
  0
LINE
  5
248
330
1F
100
AcDbEntity
  8
0
  6
CONTINUOUS
 62
     7
100
AcDbLine
 10
7.4661899696
 20
3.319164255
 30
0.0
 11
7.4661899696
 21
2.9565177792
 31
0.0
  0
LINE
  5
249
330
1F
100
AcDbEntity
  8
0
  6
CONTINUOUS
 62
     7
100
AcDbLine
 10
7.5801899696
 20
3.3297758359
 30
0.0
 11
7.4661899696
 21
3.3297758359
 31
0.0
  0
LINE
  5
24A
330
1F
100
AcDbEntity
  8
0
  6
CONTINUOUS
 62
     7
100
AcDbLine
 10
7.5801899696
 20
3.3297758359
 30
0.0
 11
7.5801899696
 21
3.319164255
 31
0.0
  0
LINE
  5
24B
330
1F
100
AcDbEntity
  8
0
  6
CONTINUOUS
 62
     7
100
AcDbLine
 10
7.4661899696
 20
3.3297758359
 30
0.0
 11
7.4661899696
 21
3.319164255
 31
0.0
  0
LINE
  5
24C
330
1F
100
AcDbEntity
  8
0
  6
CONTINUOUS
 62
     7
100
AcDbLine
 10
7.5801899696
 20
2.9565177792
 30
0.0
 11
7.5801899696
 21
2.8297758359
 31
0.0
  0
LINE
  5
24D
330
1F
100
AcDbEntity
  8
0
  6
CONTINUOUS
 62
     7
100
AcDbLine
 10
7.4661899696
 20
2.9565177792
 30
0.0
 11
7.4661899696
 21
2.8297758359
 31
0.0
  0
LINE
  5
24E
330
1F
100
AcDbEntity
  8
0
  6
CONTINUOUS
 62
     7
100
AcDbLine
 10
3.3291899696
 20
3.3297758359
 30
0.0
 11
3.2151899696
 21
3.3297758359
 31
0.0
  0
LINE
  5
24F
330
1F
100
AcDbEntity
  8
0
  6
CONTINUOUS
 62
     7
100
AcDbLine
 10
3.3291899696
 20
3.3297758359
 30
0.0
 11
3.3291899696
 21
3.319164255
 31
0.0
  0
LINE
  5
250
330
1F
100
AcDbEntity
  8
0
  6
CONTINUOUS
 62
     7
100
AcDbLine
 10
3.3291899696
 20
3.319164255
 30
0.0
 11
3.2151899696
 21
3.319164255
 31
0.0
  0
LINE
  5
251
330
1F
100
AcDbEntity
  8
0
  6
CONTINUOUS
 62
     7
100
AcDbLine
 10
3.2151899696
 20
3.3297758359
 30
0.0
 11
3.2151899696
 21
3.319164255
 31
0.0
  0
LINE
  5
252
330
1F
100
AcDbEntity
  8
0
  6
CONTINUOUS
 62
     7
100
AcDbLine
 10
3.3291899696
 20
3.319164255
 30
0.0
 11
3.3291899696
 21
2.9565177792
 31
0.0
  0
LINE
  5
253
330
1F
100
AcDbEntity
  8
0
  6
CONTINUOUS
 62
     7
100
AcDbLine
 10
3.2151899696
 20
3.319164255
 30
0.0
 11
3.2151899696
 21
2.9565177792
 31
0.0
  0
LINE
  5
254
330
1F
100
AcDbEntity
  8
0
  6
CONTINUOUS
 62
     7
100
AcDbLine
 10
3.3291899696
 20
2.9565177792
 30
0.0
 11
3.3291899696
 21
2.8297758359
 31
0.0
  0
LINE
  5
255
330
1F
100
AcDbEntity
  8
0
  6
CONTINUOUS
 62
     7
100
AcDbLine
 10
3.2151899696
 20
2.9565177792
 30
0.0
 11
3.2151899696
 21
2.8297758359
 31
0.0
  0
LINE
  5
256
330
1F
100
AcDbEntity
  8
0
  6
CONTINUOUS
 62
     7
100
AcDbLine
 10
6.9201899696
 20
3.4817758359
 30
0.0
 11
6.5721254585
 21
3.4817758359
 31
0.0
  0
LINE
  5
257
330
1F
100
AcDbEntity
  8
0
  6
CONTINUOUS
 62
     7
100
AcDbLine
 10
6.4201899696
 20
3.4817758359
 30
0.0
 11
6.1701899696
 21
3.4817758359
 31
0.0
  0
LINE
  5
258
330
1F
100
AcDbEntity
  8
0
  6
CONTINUOUS
 62
     7
100
AcDbLine
 10
6.9201899696
 20
3.4517758359
 30
0.0
 11
6.9201899696
 21
3.4817758359
 31
0.0
  0
LINE
  5
259
330
1F
100
AcDbEntity
  8
0
  6
CONTINUOUS
 62
     7
100
AcDbLine
 10
6.1701899696
 20
3.4517758359
 30
0.0
 11
6.4201899696
 21
3.4517758359
 31
0.0
  0
LINE
  5
25A
330
1F
100
AcDbEntity
  8
0
  6
CONTINUOUS
 62
     7
100
AcDbLine
 10
6.4880303872
 20
3.4517758359
 30
0.0
 11
6.5203152837
 21
3.4517758359
 31
0.0
  0
LINE
  5
25B
330
1F
100
AcDbEntity
  8
0
  6
CONTINUOUS
 62
     7
100
AcDbLine
 10
6.5524326718
 20
3.4517758359
 30
0.0
 11
6.9201899696
 21
3.4517758359
 31
0.0
  0
LINE
  5
25C
330
1F
100
AcDbEntity
  8
0
  6
CONTINUOUS
 62
     7
100
AcDbLine
 10
6.1701899696
 20
3.4817758359
 30
0.0
 11
6.1701899696
 21
3.4517758359
 31
0.0
  0
LINE
  5
25D
330
1F
100
AcDbEntity
  8
0
  6
CONTINUOUS
 62
     7
100
AcDbLine
 10
3.8751899696
 20
3.4817758359
 30
0.0
 11
4.2232544807
 21
3.4817758359
 31
0.0
  0
LINE
  5
25E
330
1F
100
AcDbEntity
  8
0
  6
CONTINUOUS
 62
     7
100
AcDbLine
 10
4.3751899696
 20
3.4817758359
 30
0.0
 11
4.6251899696
 21
3.4817758359
 31
0.0
  0
LINE
  5
25F
330
1F
100
AcDbEntity
  8
0
  6
CONTINUOUS
 62
     7
100
AcDbLine
 10
4.6251899696
 20
3.4517758359
 30
0.0
 11
4.3751899696
 21
3.4517758359
 31
0.0
  0
LINE
  5
260
330
1F
100
AcDbEntity
  8
0
  6
CONTINUOUS
 62
     7
100
AcDbLine
 10
4.307349552
 20
3.4517758359
 30
0.0
 11
4.2750646555
 21
3.4517758359
 31
0.0
  0
LINE
  5
261
330
1F
100
AcDbEntity
  8
0
  6
CONTINUOUS
 62
     7
100
AcDbLine
 10
4.2429472674
 20
3.4517758359
 30
0.0
 11
3.8751899696
 21
3.4517758359
 31
0.0
  0
LINE
  5
262
330
1F
100
AcDbEntity
  8
0
  6
CONTINUOUS
 62
     7
100
AcDbLine
 10
3.8751899696
 20
3.4517758359
 30
0.0
 11
3.8751899696
 21
3.4817758359
 31
0.0
  0
LINE
  5
263
330
1F
100
AcDbEntity
  8
0
  6
CONTINUOUS
 62
     7
100
AcDbLine
 10
4.6251899696
 20
3.4817758359
 30
0.0
 11
4.6251899696
 21
3.4517758359
 31
0.0
  0
LINE
  5
264
330
1F
100
AcDbEntity
  8
0
  6
CONTINUOUS
 62
     7
100
AcDbLine
 10
3.8751899696
 20
3.4817758359
 30
0.0
 11
3.8751899696
 21
3.5117758359
 31
0.0
  0
LINE
  5
265
330
1F
100
AcDbEntity
  8
0
  6
CONTINUOUS
 62
     7
100
AcDbLine
 10
3.8751899696
 20
3.5117758359
 30
0.0
 11
4.2466249144
 21
3.5117758359
 31
0.0
  0
LINE
  5
266
330
1F
100
AcDbEntity
  8
0
  6
CONTINUOUS
 62
     7
100
AcDbLine
 10
4.6251899696
 20
3.5117758359
 30
0.0
 11
4.6251899696
 21
3.4817758359
 31
0.0
  0
LINE
  5
267
330
1F
100
AcDbEntity
  8
0
  6
CONTINUOUS
 62
     7
100
AcDbLine
 10
4.1385676942
 20
3.6305383245
 30
0.0
 11
4.1222933862
 21
3.6468126324
 31
0.0
  0
LINE
  5
268
330
1F
100
AcDbEntity
  8
0
  6
CONTINUOUS
 62
     7
100
AcDbLine
 10
4.1435065896
 20
3.6680258359
 30
0.0
 11
4.1555718081
 21
3.6559606173
 31
0.0
  0
LINE
  5
269
330
1F
100
AcDbEntity
  8
0
  6
CONTINUOUS
 62
     7
100
AcDbLine
 10
4.3751899696
 20
3.5117758359
 30
0.0
 11
4.6251899696
 21
3.5117758359
 31
0.0
  0
LINE
  5
26A
330
1F
100
AcDbEntity
  8
0
  6
CONTINUOUS
 62
     7
100
AcDbLine
 10
4.6251899696
 20
3.4817758359
 30
0.0
 11
4.3751899696
 21
3.4817758359
 31
0.0
  0
LINE
  5
26B
330
1F
100
AcDbEntity
  8
0
  6
CONTINUOUS
 62
     7
100
AcDbLine
 10
4.2232544807
 20
3.4817758359
 30
0.0
 11
3.8751899696
 21
3.4817758359
 31
0.0
  0
LINE
  5
26C
330
1F
100
AcDbEntity
  8
0
  6
CONTINUOUS
 62
     7
100
AcDbLine
 10
4.1222933862
 20
3.6468126324
 30
0.0
 11
4.1435065896
 21
3.6680258359
 31
0.0
  0
LINE
  5
26D
330
1F
100
AcDbEntity
  8
0
  6
CONTINUOUS
 62
     7
100
AcDbLine
 10
6.9201899696
 20
3.4817758359
 30
0.0
 11
6.9201899696
 21
3.5117758359
 31
0.0
  0
LINE
  5
26E
330
1F
100
AcDbEntity
  8
0
  6
CONTINUOUS
 62
     7
100
AcDbLine
 10
6.1701899696
 20
3.4817758359
 30
0.0
 11
6.4201899696
 21
3.4817758359
 31
0.0
  0
LINE
  5
26F
330
1F
100
AcDbEntity
  8
0
  6
CONTINUOUS
 62
     7
100
AcDbLine
 10
6.5721254585
 20
3.4817758359
 30
0.0
 11
6.9201899696
 21
3.4817758359
 31
0.0
  0
LINE
  5
270
330
1F
100
AcDbEntity
  8
0
  6
CONTINUOUS
 62
     7
100
AcDbLine
 10
6.1701899696
 20
3.5117758359
 30
0.0
 11
6.1701899696
 21
3.4817758359
 31
0.0
  0
LINE
  5
271
330
1F
100
AcDbEntity
  8
0
  6
CONTINUOUS
 62
     7
100
AcDbLine
 10
6.673086553
 20
3.6468126324
 30
0.0
 11
6.6518733496
 21
3.6680258359
 31
0.0
  0
LINE
  5
272
330
1F
100
AcDbEntity
  8
0
  6
CONTINUOUS
 62
     7
100
AcDbLine
 10
6.6518733496
 20
3.6680258359
 30
0.0
 11
6.6398081311
 21
3.6559606173
 31
0.0
  0
LINE
  5
273
330
1F
100
AcDbEntity
  8
0
  6
CONTINUOUS
 62
     7
100
AcDbLine
 10
6.6568122451
 20
3.6305383245
 30
0.0
 11
6.673086553
 21
3.6468126324
 31
0.0
  0
LINE
  5
274
330
1F
100
AcDbEntity
  8
0
  6
CONTINUOUS
 62
     7
100
AcDbLine
 10
6.4201899696
 20
3.5117758359
 30
0.0
 11
6.1701899696
 21
3.5117758359
 31
0.0
  0
LINE
  5
275
330
1F
100
AcDbEntity
  8
0
  6
CONTINUOUS
 62
     7
100
AcDbLine
 10
6.9201899696
 20
3.5117758359
 30
0.0
 11
6.5487550248
 21
3.5117758359
 31
0.0
  0
LINE
  5
276
330
1F
100
AcDbEntity
  8
0
  6
CONTINUOUS
 62
     7
100
AcDbLine
 10
7.5801899696
 20
2.9565177792
 30
0.0
 11
7.4661899696
 21
2.9565177792
 31
0.0
  0
LINE
  5
277
330
1F
100
AcDbEntity
  8
0
  6
CONTINUOUS
 62
     7
100
AcDbLine
 10
3.3291899696
 20
2.9565177792
 30
0.0
 11
3.2151899696
 21
2.9565177792
 31
0.0
  0
INSERT
  5
27E
330
1F
100
AcDbEntity
  8
FORMAT
100
AcDbBlockReference
  2
SW_NOTE_49
 10
5.2277305838
 20
2.8890746363
 30
0.0
  0
ENDSEC
  0
SECTION
  2
OBJECTS
  0
DICTIONARY
  5
C
330
0
100
AcDbDictionary
  3
ACAD_GROUP
350
D
  3
ACAD_LAYOUT
350
1A
  3
ACAD_MLEADERSTYLE
350
2A2
  3
ACAD_MLINESTYLE
350
17
  3
ACAD_PLOTSETTINGS
350
19
  3
ACAD_SCALELIST
350
3B
  3
ACAD_TABLESTYLE
350
2A1
  3
ACAD_VISUALSTYLE
350
2A
  3
ACDBHEADERROUNDTRIPXREC
350
27F
  3
ACDBVARIABLEDICTIONARY
350
29F
  0
DICTIONARY
  5
D
102
{ACAD_REACTORS
330
C
102
}
330
C
100
AcDbDictionary
  0
DICTIONARY
  5
1A
102
{ACAD_REACTORS
330
C
102
}
330
C
100
AcDbDictionary
  0
DICTIONARY
  5
2A2
102
{ACAD_REACTORS
330
C
102
}
330
C
100
AcDbDictionary
  0
DICTIONARY
  5
17
102
{ACAD_REACTORS
330
C
102
}
330
C
100
AcDbDictionary
  3
STANDARD
350
18
  0
DICTIONARY
  5
19
102
{ACAD_REACTORS
330
C
102
}
330
C
100
AcDbDictionary
  0
DICTIONARY
  5
3B
102
{ACAD_REACTORS
330
C
102
}
330
C
100
AcDbDictionary
  3
A0
350
3C
  3
A1
350
3D
  3
A2
350
3E
  3
A3
350
3F
  3
A4
350
40
  3
A5
350
41
  3
A6
350
42
  3
A7
350
43
  3
A8
350
44
  3
A9
350
45
  3
B0
350
46
  3
B1
350
47
  3
B2
350
48
  3
B3
350
49
  3
B4
350
4A
  3
B5
350
4B
  3
B6
350
4C
  3
B7
350
4D
  3
B8
350
4E
  3
B9
350
4F
  3
C0
350
50
  3
C1
350
51
  3
C2
350
52
  3
C3
350
53
  3
C4
350
54
  3
C5
350
55
  3
C6
350
56
  3
C7
350
57
  3
C8
350
58
  3
C9
350
59
  3
D0
350
5A
  3
D1
350
5B
  3
D2
350
5C
  0
DICTIONARY
  5
2A1
102
{ACAD_REACTORS
330
C
102
}
330
C
100
AcDbDictionary
  0
DICTIONARY
  5
2A
102
{ACAD_REACTORS
330
C
102
}
330
C
100
AcDbDictionary
  3
2DWIREFRAME
350
2F
  3
3D_HIDDEN
350
31
  3
3DWIREFRAME
350
30
  3
BASIC
350
32
  3
BRIGHTEN
350
36
  3
COLORCHANGE
350
3A
  3
CONCEPTUAL
350
34
  3
DIM
350
35
  3
FACEPATTERN
350
39
  3
FLAT
350
2B
  3
FLATWITHEDGES
350
2C
  3
GOURAUD
350
2D
  3
GOURAUDWITHEDGES
350
2E
  3
LINEPATTERN
350
38
  3
REALISTIC
350
33
  3
THICKEN
350
37
  0
DICTIONARY
  5
27F
102
{ACAD_REACTORS
330
C
102
}
330
C
100
AcDbDictionary
  3
CEPSNTYPE
350
288
  3
DIMSTYLEDATA
350
29E
  3
FINGERPRINTGUID
350
289
  3
HYPERLINKBASE
350
282
  3
INSUNITS
350
287
  3
LAYOUTDICT
350
284
  3
LWETCUNION
350
286
  3
PLOTSETDICT
350
285
  3
PSVPSCALE
350
28B
  3
PUCSBASE
350
28E
  3
PUCSORGBACK
350
294
  3
PUCSORGBOTTOM
350
290
  3
PUCSORGFRONT
350
293
  3
PUCSORGLEFT
350
291
  3
PUCSORGRIGHT
350
292
  3
PUCSORGTOP
350
28F
  3
PUCSORTHOREF
350
28C
  3
PUCSORTHOVIEW
350
28D
  3
STYLESHEET
350
283
  3
TSTACKALIGN
350
280
  3
TSTACKSIZE
350
281
  3
UCSBASE
350
297
  3
UCSORGBACK
350
29D
  3
UCSORGBOTTOM
350
299
  3
UCSORGFRONT
350
29C
  3
UCSORGLEFT
350
29A
  3
UCSORGRIGHT
350
29B
  3
UCSORGTOP
350
298
  3
UCSORTHOREF
350
295
  3
UCSORTHOVIEW
350
296
  3
VERSIONGUID
350
28A
  0
DICTIONARY
  5
29F
102
{ACAD_REACTORS
330
C
102
}
330
C
100
AcDbDictionary
  3
CANNOSCALE
350
2A0
  0
MLINESTYLE
  5
18
102
{ACAD_REACTORS
330
17
102
}
330
17
100
AcDbMlineStyle
  2
Standard
 70
     0
  3

 62
   256
 51
90.0
 52
90.0
 71
     2
 49
0.5
 62
   256
  6
BYLAYER
 49
-0.5
 62
   256
  6
BYLAYER
  0
SCALE
  5
3C
102
{ACAD_REACTORS
330
3B
102
}
330
3B
100
AcDbScale
 70
     0
300
1:1
140
1.0
141
1.0
290
     1
  0
SCALE
  5
3D
102
{ACAD_REACTORS
330
3B
102
}
330
3B
100
AcDbScale
 70
     0
300
1:2
140
1.0
141
2.0
290
     0
  0
SCALE
  5
3E
102
{ACAD_REACTORS
330
3B
102
}
330
3B
100
AcDbScale
 70
     0
300
1:4
140
1.0
141
4.0
290
     0
  0
SCALE
  5
3F
102
{ACAD_REACTORS
330
3B
102
}
330
3B
100
AcDbScale
 70
     0
300
1:5
140
1.0
141
5.0
290
     0
  0
SCALE
  5
40
102
{ACAD_REACTORS
330
3B
102
}
330
3B
100
AcDbScale
 70
     0
300
1:8
140
1.0
141
8.0
290
     0
  0
SCALE
  5
41
102
{ACAD_REACTORS
330
3B
102
}
330
3B
100
AcDbScale
 70
     0
300
1:10
140
1.0
141
10.0
290
     0
  0
SCALE
  5
42
102
{ACAD_REACTORS
330
3B
102
}
330
3B
100
AcDbScale
 70
     0
300
1:16
140
1.0
141
16.0
290
     0
  0
SCALE
  5
43
102
{ACAD_REACTORS
330
3B
102
}
330
3B
100
AcDbScale
 70
     0
300
1:20
140
1.0
141
20.0
290
     0
  0
SCALE
  5
44
102
{ACAD_REACTORS
330
3B
102
}
330
3B
100
AcDbScale
 70
     0
300
1:30
140
1.0
141
30.0
290
     0
  0
SCALE
  5
45
102
{ACAD_REACTORS
330
3B
102
}
330
3B
100
AcDbScale
 70
     0
300
1:40
140
1.0
141
40.0
290
     0
  0
SCALE
  5
46
102
{ACAD_REACTORS
330
3B
102
}
330
3B
100
AcDbScale
 70
     0
300
1:50
140
1.0
141
50.0
290
     0
  0
SCALE
  5
47
102
{ACAD_REACTORS
330
3B
102
}
330
3B
100
AcDbScale
 70
     0
300
1:100
140
1.0
141
100.0
290
     0
  0
SCALE
  5
48
102
{ACAD_REACTORS
330
3B
102
}
330
3B
100
AcDbScale
 70
     0
300
2:1
140
2.0
141
1.0
290
     0
  0
SCALE
  5
49
102
{ACAD_REACTORS
330
3B
102
}
330
3B
100
AcDbScale
 70
     0
300
4:1
140
4.0
141
1.0
290
     0
  0
SCALE
  5
4A
102
{ACAD_REACTORS
330
3B
102
}
330
3B
100
AcDbScale
 70
     0
300
8:1
140
8.0
141
1.0
290
     0
  0
SCALE
  5
4B
102
{ACAD_REACTORS
330
3B
102
}
330
3B
100
AcDbScale
 70
     0
300
10:1
140
10.0
141
1.0
290
     0
  0
SCALE
  5
4C
102
{ACAD_REACTORS
330
3B
102
}
330
3B
100
AcDbScale
 70
     0
300
100:1
140
100.0
141
1.0
290
     0
  0
SCALE
  5
4D
102
{ACAD_REACTORS
330
3B
102
}
330
3B
100
AcDbScale
 70
     0
300
1/128" = 1'-0"
140
0.0078125
141
12.0
290
     0
  0
SCALE
  5
4E
102
{ACAD_REACTORS
330
3B
102
}
330
3B
100
AcDbScale
 70
     0
300
1/64" = 1'-0"
140
0.015625
141
12.0
290
     0
  0
SCALE
  5
4F
102
{ACAD_REACTORS
330
3B
102
}
330
3B
100
AcDbScale
 70
     0
300
1/32" = 1'-0"
140
0.03125
141
12.0
290
     0
  0
SCALE
  5
50
102
{ACAD_REACTORS
330
3B
102
}
330
3B
100
AcDbScale
 70
     0
300
1/16" = 1'-0"
140
0.0625
141
12.0
290
     0
  0
SCALE
  5
51
102
{ACAD_REACTORS
330
3B
102
}
330
3B
100
AcDbScale
 70
     0
300
3/32" = 1'-0"
140
0.09375
141
12.0
290
     0
  0
SCALE
  5
52
102
{ACAD_REACTORS
330
3B
102
}
330
3B
100
AcDbScale
 70
     0
300
1/8" = 1'-0"
140
0.125
141
12.0
290
     0
  0
SCALE
  5
53
102
{ACAD_REACTORS
330
3B
102
}
330
3B
100
AcDbScale
 70
     0
300
3/16" = 1'-0"
140
0.1875
141
12.0
290
     0
  0
SCALE
  5
54
102
{ACAD_REACTORS
330
3B
102
}
330
3B
100
AcDbScale
 70
     0
300
1/4" = 1'-0"
140
0.25
141
12.0
290
     0
  0
SCALE
  5
55
102
{ACAD_REACTORS
330
3B
102
}
330
3B
100
AcDbScale
 70
     0
300
3/8" = 1'-0"
140
0.375
141
12.0
290
     0
  0
SCALE
  5
56
102
{ACAD_REACTORS
330
3B
102
}
330
3B
100
AcDbScale
 70
     0
300
1/2" = 1'-0"
140
0.5
141
12.0
290
     0
  0
SCALE
  5
57
102
{ACAD_REACTORS
330
3B
102
}
330
3B
100
AcDbScale
 70
     0
300
3/4" = 1'-0"
140
0.75
141
12.0
290
     0
  0
SCALE
  5
58
102
{ACAD_REACTORS
330
3B
102
}
330
3B
100
AcDbScale
 70
     0
300
1" = 1'-0"
140
1.0
141
12.0
290
     0
  0
SCALE
  5
59
102
{ACAD_REACTORS
330
3B
102
}
330
3B
100
AcDbScale
 70
     0
300
1-1/2" = 1'-0"
140
1.5
141
12.0
290
     0
  0
SCALE
  5
5A
102
{ACAD_REACTORS
330
3B
102
}
330
3B
100
AcDbScale
 70
     0
300
3" = 1'-0"
140
3.0
141
12.0
290
     0
  0
SCALE
  5
5B
102
{ACAD_REACTORS
330
3B
102
}
330
3B
100
AcDbScale
 70
     0
300
6" = 1'-0"
140
6.0
141
12.0
290
     0
  0
SCALE
  5
5C
102
{ACAD_REACTORS
330
3B
102
}
330
3B
100
AcDbScale
 70
     0
300
1'-0" = 1'-0"
140
12.0
141
12.0
290
     0
  0
VISUALSTYLE
  5
2F
102
{ACAD_REACTORS
330
2A
102
}
330
2A
100
AcDbVisualStyle
  2
2dWireframe
 70
     4
 71
     0
 72
     2
 73
     0
 90
        0
 40
-0.6
 41
-30.0
 62
     5
 63
     7
 74
     1
 91
        4
 64
     7
 65
   257
 75
     1
175
     1
 42
1.0
 92
        0
 66
   257
 43
1.0
 76
     1
 77
     6
 78
     2
 67
     7
 79
     5
170
     0
171
     0
290
     0
174
     0
 93
        1
 44
0.0
173
     0
291
     0
 45
0.0
1001
ACAD
1000
AcDbSavedByObjectVersion
1070
     0
  0
VISUALSTYLE
  5
31
102
{ACAD_REACTORS
330
2A
102
}
330
2A
100
AcDbVisualStyle
  2
3D Hidden
 70
     6
 71
     1
 72
     2
 73
     2
 90
        0
 40
-0.6
 41
-30.0
 62
     5
 63
     7
 74
     2
 91
        2
 64
     7
 65
   257
 75
     2
175
     1
 42
40.0
 92
        0
 66
   257
 43
1.0
 76
     1
 77
     6
 78
     2
 67
     7
 79
     3
170
     0
171
     0
290
     0
174
     0
 93
        1
 44
0.0
173
     0
291
     0
 45
0.0
1001
ACAD
1000
AcDbSavedByObjectVersion
1070
     0
  0
VISUALSTYLE
  5
30
102
{ACAD_REACTORS
330
2A
102
}
330
2A
100
AcDbVisualStyle
  2
3dWireframe
 70
     5
 71
     0
 72
     2
 73
     0
 90
        0
 40
-0.6
 41
-30.0
 62
     5
 63
     7
 74
     1
 91
        4
 64
     7
 65
   257
 75
     1
175
     1
 42
1.0
 92
        0
 66
   257
 43
1.0
 76
     1
 77
     6
 78
     2
 67
     7
 79
     5
170
     0
171
     0
290
     0
174
     0
 93
        1
 44
0.0
173
     0
291
     0
 45
0.0
1001
ACAD
1000
AcDbSavedByObjectVersion
1070
     0
  0
VISUALSTYLE
  5
32
102
{ACAD_REACTORS
330
2A
102
}
330
2A
100
AcDbVisualStyle
  2
Basic
 70
     7
 71
     1
 72
     0
 73
     1
 90
        0
 40
-0.6
 41
-30.0
 62
     5
 63
     7
 74
     0
 91
        4
 64
     7
 65
   257
 75
     1
175
     1
 42
1.0
 92
        8
 66
     7
 43
1.0
 76
     1
 77
     6
 78
     2
 67
     7
 79
     5
170
     0
171
     0
290
     0
174
     0
 93
        1
 44
0.0
173
     0
291
     1
 45
0.0
1001
ACAD
1000
AcDbSavedByObjectVersion
1070
     0
  0
VISUALSTYLE
  5
36
102
{ACAD_REACTORS
330
2A
102
}
330
2A
100
AcDbVisualStyle
  2
Brighten
 70
    12
 71
     2
 72
     2
 73
     0
 90
        0
 40
-0.6
 41
-30.0
 62
     5
 63
     7
 74
     1
 91
        4
 64
     7
 65
   257
 75
     1
175
     1
 42
1.0
 92
        8
 66
     7
 43
1.0
 76
     1
 77
     6
 78
     2
 67
     7
 79
     5
170
     0
171
     0
290
     0
174
     0
 93
        1
 44
50.0
173
     0
291
     1
 45
0.0
1001
ACAD
1000
AcDbSavedByObjectVersion
1070
     0
  0
VISUALSTYLE
  5
3A
102
{ACAD_REACTORS
330
2A
102
}
330
2A
100
AcDbVisualStyle
  2
ColorChange
 70
    16
 71
     2
 72
     2
 73
     3
 90
        0
 40
-0.6
 41
-30.0
 62
     5
 63
     8
 74
     1
 91
        4
 64
     7
 65
   257
 75
     1
175
     1
 42
1.0
 92
        8
 66
     8
 43
1.0
 76
     1
 77
     6
 78
     2
 67
     7
 79
     5
170
     0
171
     0
290
     0
174
     0
 93
        1
 44
0.0
173
     0
291
     1
 45
0.0
1001
ACAD
1000
AcDbSavedByObjectVersion
1070
     0
  0
VISUALSTYLE
  5
34
102
{ACAD_REACTORS
330
2A
102
}
330
2A
100
AcDbVisualStyle
  2
Conceptual
 70
     9
 71
     3
 72
     2
 73
     0
 90
        0
 40
-0.6
 41
-30.0
 62
     5
 63
     7
 74
     2
 91
        2
 64
     7
 65
   257
 75
     1
175
     1
 42
40.0
 92
        8
 66
     7
 43
1.0
 76
     1
 77
     6
 78
     2
 67
     7
 79
     3
170
     0
171
     0
290
     0
174
     0
 93
        1
 44
0.0
173
     0
291
     0
 45
0.0
1001
ACAD
1000
AcDbSavedByObjectVersion
1070
     0
  0
VISUALSTYLE
  5
35
102
{ACAD_REACTORS
330
2A
102
}
330
2A
100
AcDbVisualStyle
  2
Dim
 70
    11
 71
     2
 72
     2
 73
     0
 90
        0
 40
-0.6
 41
-30.0
 62
     5
 63
     7
 74
     1
 91
        4
 64
     7
 65
   257
 75
     1
175
     1
 42
1.0
 92
        8
 66
     7
 43
1.0
 76
     1
 77
     6
 78
     2
 67
     7
 79
     5
170
     0
171
     0
290
     0
174
     0
 93
        1
 44
-50.0
173
     0
291
     1
 45
0.0
1001
ACAD
1000
AcDbSavedByObjectVersion
1070
     0
  0
VISUALSTYLE
  5
39
102
{ACAD_REACTORS
330
2A
102
}
330
2A
100
AcDbVisualStyle
  2
Facepattern
 70
    15
 71
     2
 72
     2
 73
     0
 90
        0
 40
-0.6
 41
-30.0
 62
     5
 63
     7
 74
     1
 91
        4
 64
     7
 65
   257
 75
     1
175
     1
 42
1.0
 92
        8
 66
     7
 43
1.0
 76
     1
 77
     6
 78
     2
 67
     7
 79
     5
170
     0
171
     0
290
     0
174
     0
 93
        1
 44
0.0
173
     0
291
     1
 45
0.0
1001
ACAD
1000
AcDbSavedByObjectVersion
1070
     0
  0
VISUALSTYLE
  5
2B
102
{ACAD_REACTORS
330
2A
102
}
330
2A
100
AcDbVisualStyle
  2
Flat
 70
     0
 71
     2
 72
     1
 73
     1
 90
        2
 40
-0.6
 41
30.0
 62
     5
 63
     7
 74
     0
 91
        4
 64
     7
 65
   257
 75
     1
175
     1
 42
1.0
 92
        8
 66
     7
 43
1.0
 76
     1
 77
     6
 78
     2
 67
     7
 79
     5
170
     0
171
     0
290
     0
174
     0
 93
       13
 44
0.0
173
     0
291
     1
 45
0.0
1001
ACAD
1000
AcDbSavedByObjectVersion
1070
     0
  0
VISUALSTYLE
  5
2C
102
{ACAD_REACTORS
330
2A
102
}
330
2A
100
AcDbVisualStyle
  2
FlatWithEdges
 70
     1
 71
     2
 72
     1
 73
     1
 90
        2
 40
-0.6
 41
30.0
 62
     5
 63
     7
 74
     1
 91
        4
 64
     7
 65
   257
 75
     1
175
     1
 42
1.0
 92
        0
 66
   257
 43
1.0
 76
     1
 77
     6
 78
     2
 67
     7
 79
     5
170
     0
171
     0
290
     0
174
     0
 93
       13
 44
0.0
173
     0
291
     1
 45
0.0
1001
ACAD
1000
AcDbSavedByObjectVersion
1070
     0
  0
VISUALSTYLE
  5
2D
102
{ACAD_REACTORS
330
2A
102
}
330
2A
100
AcDbVisualStyle
  2
Gouraud
 70
     2
 71
     2
 72
     2
 73
     1
 90
        2
 40
-0.6
 41
30.0
 62
     5
 63
     7
 74
     0
 91
        4
 64
     7
 65
   257
 75
     1
175
     1
 42
1.0
 92
        0
 66
     7
 43
1.0
 76
     1
 77
     6
 78
     2
 67
     7
 79
     5
170
     0
171
     0
290
     0
174
     0
 93
       13
 44
0.0
173
     0
291
     1
 45
0.0
1001
ACAD
1000
AcDbSavedByObjectVersion
1070
     0
  0
VISUALSTYLE
  5
2E
102
{ACAD_REACTORS
330
2A
102
}
330
2A
100
AcDbVisualStyle
  2
GouraudWithEdges
 70
     3
 71
     2
 72
     2
 73
     1
 90
        2
 40
-0.6
 41
30.0
 62
     5
 63
     7
 74
     1
 91
        4
 64
     7
 65
   257
 75
     1
175
     1
 42
1.0
 92
        0
 66
   257
 43
1.0
 76
     1
 77
     6
 78
     2
 67
     7
 79
     5
170
     0
171
     0
290
     0
174
     0
 93
       13
 44
0.0
173
     0
291
     1
 45
0.0
1001
ACAD
1000
AcDbSavedByObjectVersion
1070
     0
  0
VISUALSTYLE
  5
38
102
{ACAD_REACTORS
330
2A
102
}
330
2A
100
AcDbVisualStyle
  2
Linepattern
 70
    14
 71
     2
 72
     2
 73
     0
 90
        0
 40
-0.6
 41
-30.0
 62
     5
 63
     7
 74
     1
 91
        4
 64
     7
 65
   257
 75
     7
175
     7
 42
1.0
 92
        8
 66
     7
 43
1.0
 76
     1
 77
     6
 78
     2
 67
     7
 79
     5
170
     0
171
     0
290
     0
174
     0
 93
        1
 44
0.0
173
     0
291
     1
 45
0.0
1001
ACAD
1000
AcDbSavedByObjectVersion
1070
     0
  0
VISUALSTYLE
  5
33
102
{ACAD_REACTORS
330
2A
102
}
330
2A
100
AcDbVisualStyle
  2
Realistic
 70
     8
 71
     2
 72
     2
 73
     0
 90
        0
 40
-0.6
 41
-30.0
 62
     5
 63
     7
 74
     1
 91
        0
 64
     7
 65
   257
 75
     1
175
     1
 42
1.0
 92
        8
 66
     8
 43
1.0
 76
     1
 77
     6
 78
     2
 67
     7
 79
     5
170
     0
171
     0
290
     0
174
     0
 93
       13
 44
0.0
173
     0
291
     0
 45
0.0
1001
ACAD
1000
AcDbSavedByObjectVersion
1070
     0
  0
VISUALSTYLE
  5
37
102
{ACAD_REACTORS
330
2A
102
}
330
2A
100
AcDbVisualStyle
  2
Thicken
 70
    13
 71
     2
 72
     2
 73
     0
 90
        0
 40
-0.6
 41
-30.0
 62
     5
 63
     7
 74
     1
 91
        4
 64
     7
 65
   257
 75
     1
175
     1
 42
1.0
 92
       12
 66
     7
 43
1.0
 76
     1
 77
     6
 78
     2
 67
     7
 79
     5
170
     0
171
     0
290
     0
174
     0
 93
        1
 44
0.0
173
     0
291
     1
 45
0.0
1001
ACAD
1000
AcDbSavedByObjectVersion
1070
     0
  0
XRECORD
  5
288
102
{ACAD_REACTORS
330
27F
102
}
330
27F
100
AcDbXrecord
 90
        0
  0
XRECORD
  5
29E
102
{ACAD_REACTORS
330
27F
102
}
330
27F
100
AcDbXrecord
1000
DSTYLE
1002
{
1070
    41
 40
0.09
1070
    44
 40
0.0625
1070
    42
 40
0.05
1070
   147
 40
0.06
1070
   340
340
11
1070
   140
 40
0.1666666667
1002
}
  0
XRECORD
  5
289
102
{ACAD_REACTORS
330
27F
102
}
330
27F
100
AcDbXrecord
  1
{0DD7D57D-717D-4A9A-8D16-A3539D5B9FE5}
  0
XRECORD
  5
282
102
{ACAD_REACTORS
330
27F
102
}
330
27F
100
AcDbXrecord
  1

  0
XRECORD
  5
287
102
{ACAD_REACTORS
330
27F
102
}
330
27F
100
AcDbXrecord
 90
        1
  0
XRECORD
  5
284
102
{ACAD_REACTORS
330
27F
102
}
330
27F
100
AcDbXrecord
340
1A
  0
XRECORD
  5
286
102
{ACAD_REACTORS
330
27F
102
}
330
27F
100
AcDbXrecord
 90
    10269
  0
XRECORD
  5
285
102
{ACAD_REACTORS
330
27F
102
}
330
27F
100
AcDbXrecord
340
19
  0
XRECORD
  5
28B
102
{ACAD_REACTORS
330
27F
102
}
330
27F
100
AcDbXrecord
 40
0.0
  0
XRECORD
  5
28E
102
{ACAD_REACTORS
330
27F
102
}
330
27F
100
AcDbXrecord
340
0
  0
XRECORD
  5
294
102
{ACAD_REACTORS
330
27F
102
}
330
27F
100
AcDbXrecord
 10
0.0
 20
0.0
 30
0.0
  0
XRECORD
  5
290
102
{ACAD_REACTORS
330
27F
102
}
330
27F
100
AcDbXrecord
 10
0.0
 20
0.0
 30
0.0
  0
XRECORD
  5
293
102
{ACAD_REACTORS
330
27F
102
}
330
27F
100
AcDbXrecord
 10
0.0
 20
0.0
 30
0.0
  0
XRECORD
  5
291
102
{ACAD_REACTORS
330
27F
102
}
330
27F
100
AcDbXrecord
 10
0.0
 20
0.0
 30
0.0
  0
XRECORD
  5
292
102
{ACAD_REACTORS
330
27F
102
}
330
27F
100
AcDbXrecord
 10
0.0
 20
0.0
 30
0.0
  0
XRECORD
  5
28F
102
{ACAD_REACTORS
330
27F
102
}
330
27F
100
AcDbXrecord
 10
0.0
 20
0.0
 30
0.0
  0
XRECORD
  5
28C
102
{ACAD_REACTORS
330
27F
102
}
330
27F
100
AcDbXrecord
340
0
  0
XRECORD
  5
28D
102
{ACAD_REACTORS
330
27F
102
}
330
27F
100
AcDbXrecord
 70
     0
  0
XRECORD
  5
283
102
{ACAD_REACTORS
330
27F
102
}
330
27F
100
AcDbXrecord
  1

  0
XRECORD
  5
280
102
{ACAD_REACTORS
330
27F
102
}
330
27F
100
AcDbXrecord
 90
        1
  0
XRECORD
  5
281
102
{ACAD_REACTORS
330
27F
102
}
330
27F
100
AcDbXrecord
 90
       70
  0
XRECORD
  5
297
102
{ACAD_REACTORS
330
27F
102
}
330
27F
100
AcDbXrecord
340
0
  0
XRECORD
  5
29D
102
{ACAD_REACTORS
330
27F
102
}
330
27F
100
AcDbXrecord
 10
0.0
 20
0.0
 30
0.0
  0
XRECORD
  5
299
102
{ACAD_REACTORS
330
27F
102
}
330
27F
100
AcDbXrecord
 10
0.0
 20
0.0
 30
0.0
  0
XRECORD
  5
29C
102
{ACAD_REACTORS
330
27F
102
}
330
27F
100
AcDbXrecord
 10
0.0
 20
0.0
 30
0.0
  0
XRECORD
  5
29A
102
{ACAD_REACTORS
330
27F
102
}
330
27F
100
AcDbXrecord
 10
0.0
 20
0.0
 30
0.0
  0
XRECORD
  5
29B
102
{ACAD_REACTORS
330
27F
102
}
330
27F
100
AcDbXrecord
 10
0.0
 20
0.0
 30
0.0
  0
XRECORD
  5
298
102
{ACAD_REACTORS
330
27F
102
}
330
27F
100
AcDbXrecord
 10
0.0
 20
0.0
 30
0.0
  0
XRECORD
  5
295
102
{ACAD_REACTORS
330
27F
102
}
330
27F
100
AcDbXrecord
340
0
  0
XRECORD
  5
296
102
{ACAD_REACTORS
330
27F
102
}
330
27F
100
AcDbXrecord
 70
     0
  0
XRECORD
  5
28A
102
{ACAD_REACTORS
330
27F
102
}
330
27F
100
AcDbXrecord
  1
{FAEB1C32-E019-11D5-929B-00C0DF256EC4}
  0
DICTIONARYVAR
  5
2A0
102
{ACAD_REACTORS
330
29F
102
}
330
29F
100
DictionaryVariables
280
     0
  1
1:1
  0
ENDSEC
  0
EOF
